Oops, an error
Loading. Please wait.

Mannequin Tab

version 2
version 2

Whole song

Interactive

1,250 views 6 this week
1 commentread comment
1 2 3 4 5
please rate
add to favorites
launch autoscroll
font size
0
reset
how to read this tab
guitar tuner
Autoscroll
slow
fast
+/-
esc
set tempo
stop
Help us to improve Ultimate-Guitar.com Take our survey!
×
Author
Difficulty
Tuning
intermediate
C G C F A D
Hi everyone i think this tab is ace i hope you do to.

Tuning C,G,C,F,A,D

Intro
|--------------------------------------------------------------------|
|--------------------------------------------------------------------|
|--------------------------------------------------------------------|
|---10-11-10---10---10-11-10---10----10-11-10---10----10-13-10-11-10-| X2
|-8----------8----8----------8----10----------8----10----------------|
|--------------------------------------------------------------------|

Chorus
|--------------------------------------------------------------------|
|--------------------------------------------------------------------|
|--------------------------------------------------------------------|
|---10-11-10---10---10-11-10---10----10-11-10---10----10-13-10-11-10-| X2
|-8----------8----8----------8----10----------8----10----------------|
|--------------------------------------------------------------------|

Pre Verse
|--------------------------------------------------------|
|--------------------------------------------------------|
|--------------------------------------------------------|
|-6-5-3-3--6-6-5-1-1--8-------3--0-6--8-------3-----6565-|
|-4-3-1-1--4-4-3-1-1--6-0-3-4-3--0-6--6-0-3-4-3-----6565-|
|-----------------------------3--0-6----------3-5-6-6565-|

|--------------------------------------------------------|
|--------------------------------------------------------|
|--------------------------------------------------------|
|-----------------------------3--0-6----------3-----6565-| X1
|-4-3-1-1--4-4-3-1-1--6-0-3-4-3--0-6--6-0-3-4-3-----6565-|
|-----------------------------3--0-6----------3-5-6-6565-|

Verse
|-------------------------------------------------|
|-------------------------------------------------|
|-------------------------------------------------|
|-5-5-5-55-6-5-5-5-55-8-5-5-5-55-7-6-7-6-9-6-9-10-|
|-3-3-3-33-4-3-3-3-33-6-3-3-3-33-5-4-5-4-7-6-7-8--|
|-------------------------------------------------|

|----------------------------------------------------|
|----------------------------------------------------|
|----------------------------------------------------|
|-5-5-5-55-6-5-5-5-55-8-5-5-5-55-9-8-9-8-11-10-11-13-| X2
|-3-3-3-33-4-3-3-3-33-6-3-3-3-33-7-6-7-6-9--8--9--11-|
|----------------------------------------------------|

Chorus
|--------------------------------------------------------------------|
|--------------------------------------------------------------------|
|--------------------------------------------------------------------|
|---10-11-10---10---10-11-10---10----10-11-10---10----10-13-10-11-10-| X4
|-8----------8----8----------8----10----------8----10----------------|
|--------------------------------------------------------------------|

Pre Verse
|--------------------------------------------------------|
|--------------------------------------------------------|
|--------------------------------------------------------|
|-6-5-3-3--6-6-5-1-1--8-------3--0-6--8-------3-----6565-|
|-4-3-1-1--4-4-3-1-1--6-0-3-4-3--0-6--6-0-3-4-3-----6565-|
|-----------------------------3--0-6----------3-5-6-6565-|

|--------------------------------------------------------|
|--------------------------------------------------------|
|--------------------------------------------------------|
|-----------------------------3--0-6----------3-----6565-| X1
|-4-3-1-1--4-4-3-1-1--6-0-3-4-3--0-6--6-0-3-4-3-----6565-|
|-----------------------------3--0-6----------3-5-6-6565-|

Verse
|-------------------------------------------------|
|-------------------------------------------------|
|-------------------------------------------------|
|-5-5-5-55-6-5-5-5-55-8-5-5-5-55-7-6-7-6-9-6-9-10-|
|-3-3-3-33-4-3-3-3-33-6-3-3-3-33-5-4-5-4-7-6-7-8--|
|-------------------------------------------------|

|----------------------------------------------------|
|----------------------------------------------------|
|----------------------------------------------------|
|-5-5-5-55-6-5-5-5-55-8-5-5-5-55-9-8-9-8-11-10-11-13-| X2
|-3-3-3-33-4-3-3-3-33-6-3-3-3-33-7-6-7-6-9--8--9--11-|
|----------------------------------------------------|

Bridge
|----------------------------------|
|----------------------------------|
|----------------------------------|
|-6-5--4-3--8-7--9-10--12-13-12-11-| X1
|-4-3--4-3--6-5--7-8---10-11-10-9--|
|------4-3-------------------------|

|-----------------------------------------------------------------------|
|-----------------------------------------------------------------------|
|-----------------------------------------------------------------------|
|-----------------------------------------------------------------------|
|-10-9-7-10-9-7-10-9-10-9-7-10-9-7-10-9-6-5-3-6-5-3-6-5-6-5-3-6-5-3-6-5-|
|-----------------------------------------------------------------------|

|-------------------------------------------------------------------------|
|-------------------------------------------------------------------------|
|-------------------------------------------------------------------------|
|-------------------------------------------------------------------------| 
|-13-12-10-13-12-10-13-12-13-12-10-13-12-10-13-12-15-14-12-15-14-12-15-14-|
|-------------------------------------------------------------------------|

|-----------------------|
|-----------------------|
|-----------------------|
|-----------------------| X2
|-11-10-8-11-10-8-11-10-|
|-----------------------|

|--------------------------------------------------------------------|
|--------------------------------------------------------------------|
|--------------------------------------------------------------------|
|---10-11-10---10---10-11-10---10----10-11-10---10----10-13-10-11-10-| X4
|-8----------8----8----------8----10----------8----10----------------|
|--------------------------------------------------------------------|

Chorus
|--------------------------------------------------------------------|
|--------------------------------------------------------------------|
|--------------------------------------------------------------------|
|---10-11-10---10---10-11-10---10----10-11-10---10----10-13-10-11-10-| X2
|-8----------8----8----------8----10----------8----10----------------|
|--------------------------------------------------------------------|

End
|--------------------------------------------------------|
|--------------------------------------------------------|
|--------------------------------------------------------|
|-6-5-3-3--6-6-5-1-1--8-------3--0-6--8-------3-----6565-|
|-4-3-1-1--4-4-3-1-1--6-0-3-4-3--0-6--6-0-3-4-3-----6565-|
|-----------------------------3--0-6----------3-5-6-6565-|

|--------------------------------------------------------|
|--------------------------------------------------------|
|--------------------------------------------------------|
|-----------------------------3--0-6----------3-----6565-| X2
|-4-3-1-1--4-4-3-1-1--6-0-3-4-3--0-6--6-0-3-4-3-----6565-|
|-----------------------------3--0-6----------3-5-6-6565-|

Hope you enjoy the tab
Suggest correction
What's this?
You can suggest a correction to this tab. Community and Mods will review your correction and vote to approve or reject it.
comments
We did not receive enough feedback on this tab! Please rate:
print report bad tab
1 2 3 4 5
1 comment total.
0 reply
Chaz-6(sic)6 1,942 wrote on October 31 2008, 06:49 pm

You got everything but the intro right. The First version has the intro perfect. But the rest of this one is better.
On the bridge area, I think Paul uses a flanger or a chorus pedal.

guest
You may want to rate the tab now too:
select rating
Please do not post tabs as comments. Select "correction" instead!