Oops, an error
Loading. Please wait.

Medusa And Hemlock Tab

version 1
version 1

Whole song

Interactive

4,102 views 3 this week
2 commentsread comments
1 2 3 4 5
excellent!
x 5
add to favorites
launch autoscroll
font size
0
reset
how to read this tab
guitar tuner
Tab Pro tools
  • play this tab
  • loop segment
  • change instrument
  • show fretboard
  • metronome
×
Best way to learn
"Medusa And Hemlock"
Autoscroll
slow
fast
+/-
esc
set tempo
stop
Band:  Cradle of Filth
Album: Nymphetamine
Song:  Medusa and Hemlock

.  - palm mute           /  - slide up to
  - slide down to       ~  - vibrato
h  - hammer on           b  - Bend
p  - pull off            Suffixes for bend
t  - tap                 f  - full bend    h - half bend
ph - pinched harmonic    q  - quarter bend t - tap bend
*  - see comment         ^  - Hold bend    r release bend
x  - Stuccatto           ~  - vibrato bend
,  - slight palm mute    () - ghost note, sustained note
"  - tremolo note        <> - Trill

  X4
D|----------------------------------------------------------------------------|
A|-------------------------------------------------------------------------7b-|
F|----------------------------------------------------------------------------|
C|-7-7-8h7-7-7-7-10h8p7--7-7-8h7-7-7-7-10h8p7---------------------------------|
G|-0-0-0---0-0-0---------0-0-0---0-0-0--------88887777888810101010-88887777---|
D|----------------------------------------------------------------------------|

|---------|
|---------|
|---------|
|-5-4-3-1-|
|-5-4-3-1-|
|-3-2-1---|
   . . . .
 X2
|-----------------------------------------------------------------------------|
|-----------------------------------------------------------------------------|
|--------------------------------------------6-5------------------------------|
|-7-----------7-----------7-----------------------------5--8--7--8--5--8--6--9|
|-5h6p5h6p5---5h6p5h6p5---5h6p5h6p5------3-5------------3--6--5--6--3--6--4--7|
|-----------------------------------------------------------------------------|

X2
|---------------------------------------------------------------------|
|---------------------------------------------------------------------|
|---------------------------------------------------------------------|
|---------------------------------------------------------------------|
|----------------------------------------------------------------3----|
|-3333636-3333636-3333636-3333636-2222525-2222525--3-6-2-5-2-6-2------|
   ....... ....... ....... ....... ....... .......  . . . . . . . .

|-------------------------------|
|-------------------------------|
|-------------------------------|  This is all I got for this part
|-0---0h1-1---0-1-6-5-4---3/4-3-|
|-0---0h1-1---0-1-6-5-4---3/4-3-|
|-----------------4-3-2---1/2-1-|
               . . . .


   X2                          (Guitar 1)
|-------------------------------------------------------------------|
|-------------------------------------------------------------------|
|-------------------------------------------------------------------|
|---10-11-10---10---10-11-10---10---10-11-10---10---8-10-8---8------|
|-8----------8----8----------8----8----------8-------------11-11----|
|-------------------------------------------------------------------|


     X2
|-------------------------------------------------------------------|
|-------------------------------------------------------------------|
|-------------------------------------------------------------------|
|---9-10-9---9---9-10-9---9---9-10-9---9---7-9-7----7---------------|
|-7--------7---7--------7---7--------7-----------10---10------------|
|-------------------------------------------------------------------|



   X2                               (Guitar 2)
|---------------------------------------------------------------------------|
|---------------------------------------------------------------------------|
|----12-13-12----12----12-13-12----12----12-13-12----12---10-12-10----10----|
|-10----------10----10----------10----10----------10---------------13----13-|
|---------------------------------------------------------------------------|
|---------------------------------------------------------------------------|


      X2
|---------------------------------------------------------------------------|
|---------------------------------------------------------------------------|
|---11-12-11---11---11-12-11---11---11-12-11---11---9-11-9----9-------------|
|-9----------9----9----------9----9----------9-------------12---12----------|
|---------------------------------------------------------------------------|
|---------------------------------------------------------------------------|



|---------------------------------------------|
|---------------------------------------------|
|---------------------------------------------|
|-7-----------3-----------6------------5--5---|
|-5-----------1-----------4------------5--5---|
|--------------------------------------3--3---|
      . . . .     . . . .     . . . .

            Back To The Beginning


    X2                   (Guitar 1)
|------------------------------------------------------|
|------------------------------------------------------|
|------------------------------------------------------|
|------------------------------------------------------|
|---5-6-5---5---5-6-5---5---5-6-5---5---3-5-3-1-3-1----|
|-3-------3---3-------3---3-------3--------------------|


    X2
|------------------------------------------------------|
|------------------------------------------------------|
|------------------------------------------------------|
|------------------------------------------------------|
|---4-5-4---4---4-5-4---4---4-5-4---4---2-4-2-0-2-0----|
|-2-------2---2-------2---2-------2--------------------|



    X2                   (Guitar 2)
|------------------------------------------------------|
|------------------------------------------------------|
|------------------------------------------------------|
|---7-8-7---7---7-8-7---7---7-8-7---7---5-7-5---5------|
|-5-------5---5-------5---5-------5-----------8---8----|
|------------------------------------------------------|


     X2
|------------------------------------------------------|
|------------------------------------------------------|
|------------------------------------------------------|
|---6-7-6---6---6-7-6---6---6-7-6---7---4-6-4---4------|
|-4-------4---4-------4---4-------4-----------7---7----|
|------------------------------------------------------|


|--------------------------------------|
|--------------------------------------|
|--------------------------------------|
|-0---0h1-1---0-1-6-5-4---3/4-3---6--4-|
|-0---0h1-1---0-1-6-5-4---3/4-3---4--2-|
|-----------------4-3-2---1/2-1---4--2-|
               . . . .

|--------------------------------------|
|--------------------------------------|
|--------------------------------------|
|-0---0h1-1---0-1-0-1-5---6---6--------|
|-0---0h1-1---0-1-0-1-3---6---4--------|
|---------------------3---4---4--------|
               . . . .
   X2
|----------------------------------------------------|
|----------------------------------------------------|
|----------------------------------------------------|
|-5--------5-5-5---5-5-5--------4-----4-4-4---4-4-4--|
|-5--------5-5-5---5-5-5--------4-----4-4-4---4-4-4--|
|-3--------3-3-3---3-3-3--------2-----2-2-2---2-2-2--|


  X2
|----------------------------------------------------------------------------|
|-------------------------------------------------------------------------7b-|
|----------------------------------------------------------------------------|
|-7-7-8h7-7-7-7-10h8p7--7-7-8h7-7-7-7-10h8p7---------------------------------|
|-0-0-0---0-0-0---------0-0-0---0-0-0--------88887777888810101010-88887777---|
|----------------------------------------------------------------------------|

  X4
|----------------------------------------------------------------------------|
|----------------------------------------------------------------------------|
|----------------------------------------------------------------------------|
|----------------------------------------------------------------------------|
|----------------------------------------------------------------3-----------|
|-3333636-3333636-3333636-3333636-2222525-2222525--3-6-2-5-3-6-2-------------|
   ....... ....... ....... ....... ....... .......  . . . . . . . .

  X2
|-------------------------------------------------------------|
|-------------------------------------------------------------|
|--------------------------------------------------------7----|
|--------------------------------------------------------7----|
|---------------3---------------3---------------3--------5----|
|-3-6-2-5-3-6-2---3-6-2-5-3-6-2---3-6-2-5-3-6-2---------------|
   . . . . . . . . . . . . . . . . . . . . . . . .

* I didn't write this tab. I found it on another website but on CGCFAD, so I fixed it to
DGCFAD because all of Cradle of Filth songs are played in DGCFAD except some songs from
the album "Damnation and a Day", where only "THe Promise of Fever", "Doberman Pharaoah"
and "The Smoke of Her Burning" are played in DGCFAD. All of the others are played in
CGCFAD. I know this information because one of the guitarists from Cradle of Filth told
me. Be sure it's right.
comments
print report bad tab
2 comments total.
+1 reply
lutzlongthc wrote on May 18 2005, 12:00 am

you know one of their guitarists??!!

0 reply
LightningboltX wrote on September 30 2006, 12:49 pm

What about the solo?

I want to post or [tab]
guest
You may want to rate the tab now too:
select rating
Please do not post tabs as comments. Select "correction" instead!