Oops, an error
Loading. Please wait.

Mistress From The Sucking Pit Tab

450 views 1 this week
no commentswrite comment
1 2 3 4 5
please rate
add to favorites
launch autoscroll
font size
0
reset
how to read this tab
guitar tuner
Autoscroll
slow
fast
+/-
esc
set tempo
stop
Help us to improve Ultimate-Guitar.com Take our survey!
×
Author
Difficulty
Tuning
intermediate
D G C F A D
misstress from the sucking pit- dgcfad

Riff A both gtrs.0:19-0:45.2:18-2:45,5:10-5:36------------------------------------------------|
----------------------------------------------------------------------------------------------|
----------------------------------------------------------------------------------------------|
----------------------------------------------------------------------------------------------|
----------------------------------------------------------------------------------------------|
---pm'd-------------------pm-'d--------------------pm'd------------------pm'd-----------------|
-888888888888-11-8-11-8-888888888888-11-8-11-8-777777777777-10-7-10-7-777777777777-11-8-11-8--|

Riff A continued
----------------------------------------------------------------------------------|
----------------------------------------------------------------------------------|
----------------------------------------------------------------------------------|
-----------------------------------------------------------------8---7---13---12--|
---pm'd--------------------pm'd-------------------6--5---10--9---6---5---11---10--|
-888888888888-11-8-11-8-888888888888-11-8-11-8----4--3---8---7---6---5---11---10--|

Riff A continued
----------------------------------------------------------------------------------------------|
----------------------------------------------------------------------------------------------|
----------------------------------------------------------------------------------------------|
----------------------------------------------------------------------------------------------|
---pm'd-------------------pm-'d--------------------pm'd------------------pm'd-----------------|
-888888888888-11-8-11-8-888888888888-11-8-11-8-777777777777-10-7-10-7-777777777777-11-8-11-8--|

RiffA continued
-----------------------------------------------------------------------|
-----------------------------------------------------------------------|
-----------------------------------------------------------------------|
--------------------------------------------------------8---7----------|
----pm'd--------------------pm'd-----------------6---5--6---5---6---5--|
-888888888888-11-8-11-8-888888888888-11-8-11-8---4---3--6---5---4---3--|

Riff B both gtrs 0:45-1:10,2:42-3:11,4:44-5:10----------------------------------|
--------------------------------------------------------------------------------|
--------------------------------------------------------------------------------|
-----------------------------------------------------------------------------4--|
---------------------------------------------------------------------------8----|
-2---pm'd--8\7/8----pm'd-------8-7-8-10--2---pm'd--8\7/8----pm'd---------7------|
-0-000000--6\5/6-000000000000--6-5-6-8---0-000000--6\5/6-0000-0-0-0-0--6--------|

Riff B continued
-------------------------------------------------------------------------------]after last time
---------------------------------------------------------------------let ring--]
-------------------------------------------------------------------------0*----]-
---------------------------------------------------------------------0^1---4---]
-2---pm'd--8\7/8----pm'd-------8-7-8-10--2---pm'd--8\7/8----pm'd---------------]--6-5---------
-0-000000--6\5/6-000000000000--6-5-6-8---0-000000--6\5/6-0000-0-0-0-0----------]--4-3--2^3-2^3

Riff C both gtrs 1:12-1:25,3:12-3:24,
---------------------------------------------------------------------|
---------------------------------------------------------------------|
---------------------------------------------------------------------|
-----------8---------------------------------8-----------------------|
-pm'd-----7--7---pm'd---8-10-8-7-pm'd------7---7-7-pm-7-pm-7-pm-7-7--|
00000000-6-----00000000-6-8--6-5-00000000-6------6-66-6-66-6-66-6-6--|

-----------------------------------------------------|
-----------------------------------------------------|
-----------------------------------------------------|
-----------8-----------------------------13-13-12-10-|
-pm'd-----7--7---pm'd---8-10-8-7--6--5-8-11-11-10-8--|
00000000-6-----00000000-6-8--6-5--4--3-6-------------|


Riff D Gt. 1 1:25-1:52 3:24-3:50
-----------------------------------------------------|
-----------------------------------------------------|
------------------------pm---pm----------------------|
----------------------6----6----6-6------------------|
-2-pm-2-pm-2-2-pm--2--4-44-4-44-4-4-8-8-8-8----------|
-0-00-0-00-0-0-0-0-0----------------6-6-6-6----------|

RiffD Gt. 2
----------------------------------------------------------------|
----------------------------------------------------------------|
----------------------------------------------------------------|
----------pm-------pm-------------------------------------------|
-2-pm--10----10-9------7--10-pm-11-pm--10-11--8-8-8-8-----------|
-0-00---0-00-0--0--0-0-0--9--99-9--99---9-9---6-6-6-6-----------|

Riff E Gt.1 1:53-2:18,3:50-4:17
-------------------------------------------------------------|
-5----4------------------------------------------------------|
-x----x-----6----5---3---------------------------------------|
-3----2-----x----x---x---6--5--------------------------------|
------------4----3---1---------------------------------------|

Riff E Gt. 2
-----------------------------------------------------------------------|
-----------------------------------------------------------------------|
-------12------------12-------------12------12-10---10-----------------|
-10-12---12-13-10-12----12-10-10-12----12-13------13---13-12--13--12---|
-----------------------------------------------------------------------|
-----------------------------------------------------------------------|

Riff F both gtrs 4:17-4;44
------------------------------------------------------------|
------------------------------------------------------------|
-----------------------------------------------------4--4---|
---------------------------------------------------8--8-----|
-2-pm---8\----2--pm--8-7-8-10---2-pm---8\----2----7---------|
-0-00---6\[0]-0--00--6-5-6-8----0-00---6\[0]-0---6----------|

-------------------------------------------------------------------|
-------------------------------------------------------------------|
-------------------------------------------------0--0--------------|
------------------------------------------------4--4-4-------------|
2-pm---8\----2--pm--8-7-8-10---2-pm---8\----2--6-------------------|
0-00---6\[0]-0--00--6-5-6-8----0-00---6\[0]-0----------------------|


Riff G Gt.1
-----------------------------------------------|
-----------------------------------------------|
-----------------------------------------------|
-----------------------------------------------|
2--pm---2--2----pm----2-pm---2--2--2--2--2--2--|
0-0000--0--0--000000--0-0000-0--0--0--0--0--0--|

-------------------------------]----------------------------|
--------------------------------]-after 2nd time all\\\'d---|
---pm--------------------------]----------------------------|
-6----6--6-------6----6-6-6-----]---------------------------|
-444444--4444444-444444-4-4-8-8-]----8-9-8----7--6--7-------|
---------------------------6-6-]--6--------5----------------|

Riff G Gt.2
---------------------------------------------------------------------------------------|
---------------------------------------------------------------------------------------|
---------------------------------------------------------------------------------------|
---------------------------------------------------------------------------------------|
-7------9--10---------7------9--10-9--7-9--7-------9-10--------7-----9-10-9-7-9--11-11-|
-0-0000-0--0--000000--0-0000-0--0--0--0-0--6-6666--6-6--666666-6-66666--6-6-6-6--9--9--|
Suggest correction
What's this?
You can suggest a correction to this tab. Community and Mods will review your correction and vote to approve or reject it.
comments
We did not receive enough feedback on this tab! Please rate:
print report bad tab
1 2 3 4 5
guest
You may want to rate the tab now too:
select rating
Please do not post tabs as comments. Select "correction" instead!