Oops, an error
Loading. Please wait.

No Time To Cry Tab

version 3
version 3

Whole song

Interactive

3,945 views 3 this week
1 commentread comment
1 2 3 4 5
accurate
x 3
add to favorites
launch autoscroll
font size
0
reset
how to read this tab
guitar tuner
Autoscroll
slow
fast
+/-
esc
set tempo
stop
Help us to improve Ultimate-Guitar.com Take our survey!
×
Author
BAND:CRADLE OF FILTH
SONG:NO TIME TO CRY
ALBUM:BITTER SUITES TO SUCCUBI
TUNING: (DGCFAD)

I TABBED THIS CAUSE ITS A WICKED SONG IM PRETTY SURE ITS 100%.AND ITS ONE OF CRADLES 
SONGS ENJOY,PLZ RATE THIS.


* = PALM MUTE
) = DELAY COUNTS
" = TREM PICK


  INTRO CLEAN W/DELAY X4
D-----------------------------------------------------|
A-----------------------------------------------------|
F-----------------------------------------------------|
C--4-)-)--767--0-)-)-)----4-)-)--767------------------|
G-----------------------------------------------------|
D--------------------------------------7-)-)-)--------|


  INTRO 2 DIST.(RIFF1) X2
D--------------------------------------------------------------------------|
A--------------------------------------------------------------------------|
F------------------------------------------------------------------6-------|
C--------------9--9-9-9-8-8-9-----------------------------8--8-8-9---9-8-9-|
G--66--6-4-6---7--7-7-7-7-7-7----11--11-14-14-13-13-14----6--6-------------|
D--44--4-4-4---------------------9---9--9--9--9--9--9----------------------|
                  *   *   *          *     *     *           *


   VERSE X2 (RIFF2)
D--------------------------------------------------------------|
A--------------------------------------------------------------|
F--------------------------------------------------------------|
C-----------------------------------6-----6-6--8----9----8-----|
G--6------6-----2----2---1---2------4-444-4-4--6-66-6-66-6-9---|
D--4-444---7----0--0---0---0-----------------------------------|
     ***           *   *   *          ***        **   **


   VERSE PT2 X2 (RIFF3)
D------------------------------------------------------------------|
A------------------------------------------------------------------|
F------------------------------------------------------------------|
C--6"-9"-8"-9"-----9"-8"-9"-----9"-8"-9"------8"-9"-11"-9"-8"-9"---|
G---------------7"-------------------------6"----------------------|
D----------------------------9"------------------------------------|

   CHORUS X4 (RIFF4)                                   4TH TIME END CHORUS
                                                       WITH THIS.
D-----------------------------------------------      D-------|
A-----------------------------------------------      A-------|
F-----------------------------------------------      F-------|
C-----------------------------------------------      C--6~---|/////
G--6----6-----9----9-----2----2----2----2-------      G--4~---|/////P/SLIDE
D--4-44-4-44--7-77-7-77--0-00-0-00-0-00-0-00----      D-------|////

PLAY....

RIFF3 X2
RIFF4 X4
RIFF2 X2
RIFF3 X2
RIFF4 X4

  OUTRO CHORD
D----------|
A----------|
F----------|
C----------|
G--6~~-----|
D--4~~-----|

  THATS ALL PLZ RATE THIS.

  TABBED BY:TAB_MAN84
Suggest correction
What's this?
You can suggest a correction to this tab. Community and Mods will review your correction and vote to approve or reject it.
comments
We did not receive enough feedback on this tab! Please rate:
print report bad tab
1 2 3 4 5
1 comment total.
0 reply
Jeff Manthei 62 wrote on January 23 2007, 11:38 am

the intro is bass... not guitar

guest
You may want to rate the tab now too:
select rating
Please do not post tabs as comments. Select "correction" instead!