Oops, an error
Loading. Please wait.

Nymphetamine Tab

1,658 views 1 this week
3 commentsread comments
1 2 3 4 5
please rate
add to favorites
launch autoscroll
font size
0
reset
how to read this tab
guitar tuner
Tab Pro tools
  • play this tab
  • loop segment
  • change instrument
  • show fretboard
  • metronome
×
Best way to learn
"Nymphetamine"
Autoscroll
slow
fast
+/-
esc
set tempo
stop
Contributor
Difficulty
intermediate
took bout a week to get it down
its sounds pretty
damn good
please comment people


Intro:{paul and Charles}

|-----------------------------------------------------|
|-----------------------------------------------------|
|-----------------------------------------------------|
|-----------------------------------------------------|  X4
|--1------------3------------8---------6----------1---|
|--0------------1------------6---------4----------0---|

Bridge:{paul and Charles}

|-------------------------------------------------------------------------------------------------|
|--8-7-8-5-8-7-8-7-8-5-8-7-8---8-7-8-7-8---8-7-8-7-8---8-7-8-7-8---8-7-8-7-8---8-7-8-7-8-10-8-7---|
|----------------------------7-----------7-----------5-----------5-----------4--------------------|  X2
|-------------------------------------------------------------------------------------------------|
|-------------------------------------------------------------------------------------------------|
|-------------------------------------------------------------------------------------------------|

Pre-Chorus:Paul and Charles}

|-------------------------------------------------------------|
|-------------------------------------------------------------|
|-------------------------------------------------------------|
|-------------------------------------------------------------|
|-10-10-10-10-10-10-8-8-8-8-8-8-10-10-10-10-10-10-6-6-6-6-6-6-|
|--8--8--8--8--8--8-6-6-6-6-6-6--8--8--8--8--8--8-4-4-4-4-4-4-|


      |-------------------------------------------------------|
      |-------------------------------------------------------|
      |-------------------------------------------------------|
      |-------------------------------------------------------|
      |-10-10-10-10-10-10-8-8-8-8-8-8-6-6-6-6-6-6-8-8-8-8-8-8-|
      |--8--8--8--8--8--8-6-6-6-6-6-6-4-4-4-4-4-4-6-6-6-6-8-8-|


|-------------------------------------------------------------|
|-------------------------------------------------------------|
|-------------------------------------------------------------|
|-------------------------------------------------------------|
|-10-10-10-10-10-10-8-8-8-8-8-8-10-10-10-10-10-10-6-6-6-6-6-6-|
|--8--8--8--8--8--8-6-6-6-6-6-6--8--8--8--8--8--8-4-4-4-4-4-4-|


      |-------------------------------------------------------|
      |-------------------------------------------------------|
      |-------------------------------------------------------|
      |-------------------------------------------------------|
      |-10-10-10-10-10-10-8-8-8-8-8-8-6-6-6-6-6-6-8-8-8-8-HOLD|
      |--8--8--8--8--8--8-6-6-6-6-6-6-4-4-4-4-4-4-6-6-6-6-HOLD|

Paul:{when Liv sings"For Once Upon a Time From the Vines of Your Holiness}

|----------------------------------------------------|\----- \
|13/15-15-16-15/13-13-------13----13-15/17-17-18-16--|------ \
|---------------------14-15----15--------------------| ----- \
|----------------------------------------------------|  ---- \
|----------------------------------------------------|   --- \
|----------------------------------------------------|    -- \
OR                                                          EITHER
|--10/12-12-13-12/10-10-------10----10-12/14-14-15-13--- \   /
|-----------------------12-13----13--------------------- \  /
|------------------------------------------------------- \ /
|------------------------------------------------------- \
|------------------------------------------------------- \
|------------------------------------------------------- \

Chorus:{Paul and Charles}

|-------------------------------------------------------------------------|
|------------7-8-7--8-7/5-5-8-10-8-10-8/7-7-12-13-12-13-10--10-8-10-12----|
|---7/9-9~----------------------------------------------------------------|
|-------------------------------------------------------------------------|
|-------------------------------------------------------------------------|
|-------------------------------------------------------------------------|

|--------------------------------------------------------------------------------|
|-------------9-10-9-10-9/7-7-10-12-10-12-10/9-9-14-15-14-15-14-15--12-9-12------|
|---9/11-11----------------------------------------------------------------------|
|--------------------------------------------------------------------------------|
|--------------------------------------------------------------------------------|
|--------------------------------------------------------------------------------|

Post-Chorus:Paul and Charles}
{once only}
|----------|----------------------------------------------------------------|
|----------|----------------------------------------------------------------|
|----------|----------------------------------------------------------------|  X2
|----------|----------------------------------------------------------------|
|-5--5-----|-7-------6-------3-------4-------7-------6-------4-------3------|
|-5--5-----|-5-------4-------1-------2-------5-------4-------2-------1------|

Bridge:{Paul and Charles}

|-----------------------------------------------------------------------------------------------------------------|
|--8-7-8-10-8-7-8-7-8-5-8-7-8-7-8-5-8-7-8-7-8---8-7-8-7-8---8-7-8-7-8---8-7-8-7-8---8-7-8-7-8---8-7-8-7-8-10-8-7--|
|---------------------------------------------7-----------7-----------5-----------5-----------4-------------------|
|-----------------------------------------------------------------------------------------------------------------|
|-----------------------------------------------------------------------------------------------------------------|
|-----------------------------------------------------------------------------------------------------------------|

Pre-Chorus:{Paul and Charles}

|-------------------------------------------------------------|
|-------------------------------------------------------------|
|-------------------------------------------------------------|
|-------------------------------------------------------------|
|-10-10-10-10-10-10-8-8-8-8-8-8-10-10-10-10-10-10-6-6-6-6-6-6-|
|--8--8--8--8--8--8-6-6-6-6-6-6--8--8--8--8--8--8-4-4-4-4-4-4-|


      |-------------------------------------------------------|
      |-------------------------------------------------------|
      |-------------------------------------------------------|
      |-------------------------------------------------------|
      |-10-10-10-10-10-10-8-8-8-8-8-8-6-6-6-6-6-6-8-8-8-8-8-8-|
      |--8--8--8--8--8--8-6-6-6-6-6-6-4-4-4-4-4-4-6-6-6-6-8-8-|


|-------------------------------------------------------------|
|-------------------------------------------------------------|
|-------------------------------------------------------------|
|-------------------------------------------------------------|
|-10-10-10-10-10-10-8-8-8-8-8-8-10-10-10-10-10-10-6-6-6-6-6-6-|
|--8--8--8--8--8--8-6-6-6-6-6-6--8--8--8--8--8--8-4-4-4-4-4-4-|


      |-------------------------------------------------------|
      |-------------------------------------------------------|
      |-------------------------------------------------------|
      |-------------------------------------------------------|
      |-10-10-10-10-10-10-8-8-8-8-8-8-6-6-6-6-6-6-8-8-8-8-HOLD|
      |--8--8--8--8--8--8-6-6-6-6-6-6-4-4-4-4-4-4-6-6-6-6-HOLD|

Paul:{when Liv sings "For Once Upon a Time, From the Vines of Your Loliness"}

|-----------------------------------------------------------------------------------------|
|13/15-15-16-15/13-13-------13----13-15/17-17-18-16-15/13-13-15-16-18-17-15-18/20-18-17~~-|
|---------------------14-15----15---------------------------------------------------------|
|-----------------------------------------------------------------------------------------|
|-----------------------------------------------------------------------------------------|
|-----------------------------------------------------------------------------------------|
OR
|--10/12-12-13-12/10-10-------10----10-12/14-14-15-13-12/10-10-12-13-15-14-12-15/17-15-14~----|
|-----------------------12-13----13-----------------------------------------------------------|
|---------------------------------------------------------------------------------------------|
|---------------------------------------------------------------------------------------------|
|---------------------------------------------------------------------------------------------|
|---------------------------------------------------------------------------------------------|

Chorus:{Paul and Charles}

|-------------------------------------------------------------------------|
|------------7-8-7--8-7/5-5-8-10-8-10-8/7-7-12-13-12-13-10--10-8-10-12----|
|---7/9-9~----------------------------------------------------------------|
|-------------------------------------------------------------------------|
|-------------------------------------------------------------------------|
|-------------------------------------------------------------------------|

|----------------------------------------------------------------------------------|
|-------------9-10-9-10-9/7-7-10-12-10-12-10/9-9-14-15-14-15-14-15--12-9-12-14-----|
|---9/11-11------------------------------------------------------------------------|
|----------------------------------------------------------------------------------|
|----------------------------------------------------------------------------------|
|----------------------------------------------------------------------------------|

Post-Chorus:{Paul}

|----------------------------------------------------------------------------------|
|-------------9-10-9-10-9/7-7-10-12-10-12-10/9-9-14-15-14-15-14-15--12-9-12-14-----|
|---9/11-11------------------------------------------------------------------------|
|----------------------------------------------------------------------------------|
|----------------------------------------------------------------------------------|
|----------------------------------------------------------------------------------|

Post Chorus:{Charles}

|-------------------------------------------------------------------------|
|------------7-8-7--8-7/5-5-8-10-8-10-8/7-7-12-13-12-13-10--10-8-10-12----|
|---7/9-9~----------------------------------------------------------------|
|-------------------------------------------------------------------------|
|-------------------------------------------------------------------------|
|-------------------------------------------------------------------------|

Then

|---------|----------------------------------------------------------------|
|---------|----------------------------------------------------------------|
|---------|----------------------------------------------------------------|X2
|---------|----------------------------------------------------------------|
|-5--5----|-7-------6-------3-------4-------7-------6-------4-------3------|
|-5--5----|-5-------4-------1-------2-------5-------4-------2-------1------|

Outro:

|-----|
|-----|
|-----|
|--1--|
|--1--|
|--0--|
comments
We did not receive enough feedback on this tab! Please rate:
print report bad tab
1 2 3 4 5
3 comments total.
-1 reply
Chaz-6(sic)6 wrote on August 2 2007, 05:57 pm

First of all, Charles Hedger is not on the Nymphetamine album, James Mcllroy is the second guitarist. Second of all, this doesn't state which tuning it's on. Cradle uses Drop C tuning (C,G,C,F,A,D) on this song.
This is wrong.
3 stars for effort.

0 reply
Chaz-6(sic)6 wrote on August 2 2007, 06:11 pm

If you want a good Nyphetamine tab check out version 10. Add the following to version 10. On the intro no one seems to listen to me. The intro goes like this:

D|-----------|-----------|----------------|
A|-----------|-----------|----------------|
F|-----------|-----------|----------------|
C|--7--------|--3--------|--8---5-----7---|
G|--7--------|--3--------|--8---5-----7---|
C|--7--------|--3--------|--8---5-----7---|

Then repeat the right amount of times.
Trust me, they play it like this on the DVD Peace Through Superior Firepower.

0 reply
TheDarklordgow wrote on July 2 2010, 05:39 pm

great adaption for standard tuning very accurate. BTW song works in standard and drop c. it sounds exactly the same

I want to post or [tab]
guest
You may want to rate the tab now too:
select rating
Please do not post tabs as comments. Select "correction" instead!