Oops, an error
Loading. Please wait.

Nymphetamine Tab

5,511 views 3 this week
no commentswrite comment
1 2 3 4 5
x 4
add to favorites
launch autoscroll
font size
0
reset
how to read this tab
guitar tuner
Autoscroll
slow
fast
+/-
esc
set tempo
stop
Help us to improve Ultimate-Guitar.com Take our survey!
×
Band: Cradle of Filth
Album: Nymphetamine
Song: Nymphetamine (Overdose)
Record Label: Roadrunner
Tuning: CGCFAD

listen to the song for the rhythms

---------------------------------------------------------------|
---------------------------------------------------------------|
-------------------------------------0------0------0------0----|
-----------------------------------4------4------4------4------|
--5---5---5--5--5-5-6-6-2~-------4------4------4------4--------|
-------------------------------4------5------4------2----------|X4

-----
-----
-----
--2--
--2--
--2--Let ring

---------------------------------------|
---------------------------------------|
---------------------------------------|
---------------5-------6-------5-------|
--71097976-1-2-3-3-1-2-4-5-1-2-3-3-----|
-----------1-2---3-1-2---5-1-2---3-----|X5
  trem.... pm      pm      pm

--------------------------------|
--------------------------------|
--------------------------------|
--------------------------------|
--9-8-3-------------9-8-3-8-----|
--------33333333333-------------|X2
  trem. pm......... trem...

---------------------------------------|
---------------------------------------|
---------------------------------------|
---------------5-------6-------5-------|
--71097976-1-2-3-3-1-2-4-5-1-2-3-3-----|
-----------1-2---3-1-2---5-1-2---3-----|X5
  trem.... pm      pm      pm


--------------------------|
--------------------------|
--------------------------|
--------------------------|
-2------------------------|
-2--------PIK SCRAPE------|

----------------------------------------------|
----------------------------------------------|
----------------------------------------------|
-----------------------------------55550000---|
---2-5424-5424-6-6-3-2-5424-5424-5------------|
---2-5424-5424-6-6-3-2-5424-5424-5------------|x4

-------------------------|
-------------------------|
-------------------------|
-------------------------|
---2-5424-5424-6-6-3-0---|
---2-5424-5424-6-6-3-0---|

-------------|
-------------|
-------------|
-------------|
--0-3-8-5-0--|
--0-3-8-5-0--|X6
let the notes ring

-----------------------------------------------------------------------|
-----------------------------------------------------------------------|
-10-9-10-7-10-9-10-9-10-7-10-9-10-9-10-5-10-9-10-9-10-5-10-9-10-9-10-3-|
-----------------------------------------------------------------------|
-----------------------------------------------------------------------|
-----------------------------------------------------------------------|

----------------------------------------------------|
----------------------------------------------------|
-10-9-10-9-10-3-10-9-10-9-10-3-10-9-10-9-10-12-10-9-|
----------------------------------------------------|
----------------------------------------------------|
----------------------------------------------------|X2

-----------------------------------------------------|
-----------------------------------------------------|
-----------------------------------------------------|
-----------------------------------------------------|
-777777555555777777333333-777777555555333333555555---|
-777777555555777777333333-777777555555333333555555---|X2
 pm................................................

-----------------------------------------------------------------------|
----------------------------------------10-11-10--10h11-8--8h10-6-8-10-|
-5-77--9-10-9-9h10-7--10-12-10--10h12-9--------------------------------|
-----------------------------------------------------------------------|
-----------------------------------------------------------------------|
-----------------------------------------------------------------------|

---------------------------------------------------------------10--------------|
---------10-11-10--10h11-6--10-11-10--10h11-8--13-15-13--13h15-----8h10-6-8-10-|
-9-1010------------------------------------------------------------------------|
-------------------------------------------------------------------------------|
-------------------------------------------------------------------------------|
-------------------------------------------------------------------------------|

-------|
-------|
-------|
--3-3--|
--3-3--|
--3-3--|

--------------|
--------------|
--------------|
--7--6--3--4--|
--7--6--3--4--|
--7--6--3--4--|x4

-----
-----
-----
--5--
--5--
--5--
let ring

------------------|
---------8--------|
-10-9-10---10-9---|
------------------|
------------------|
------------------|

-----------------------------------------------------------------------|
-----------------------------------------------------------------------|
-10-9-10-7-10-9-10-9-10-7-10-9-10-9-10-5-10-9-10-9-10-5-10-9-10-9-10-3-|
-----------------------------------------------------------------------|
-----------------------------------------------------------------------|
-----------------------------------------------------------------------|

----------------------------------------------------|
----------------------------------------------------|
-10-9-10-9-10-3-10-9-10-9-10-3-10-9-10-9-10-12-10-9-|
----------------------------------------------------|
----------------------------------------------------|
----------------------------------------------------|X2

-----------------------------------------------------|
-----------------------------------------------------|
-----------------------------------------------------|
-----------------------------------------------------|
-777777555555777777333333-777777555555333333555555---|
-777777555555777777333333-777777555555333333555555---|X2
 pm................................................

-----------------------------------------------------------------------|
----------------------------------------10-11-10--10h11-8--8h10-6-8-10-|
-5-77--9-10-9-9h10-7--10-12-10--10h12-9--------------------------------|
-----------------------------------------------------------------------|
-----------------------------------------------------------------------|
-----------------------------------------------------------------------|x2

---------------------------------------------------------------10--------------|
---------10-11-10--10h11-6--10-11-10--10h11-8--13-15-13--13h15-----8h10-6-8-10-|
-9-1010------------------------------------------------------------------------|
-------------------------------------------------------------------------------|
-------------------------------------------------------------------------------|
-------------------------------------------------------------------------------|x2


-------------|
-------------|
-------------|
---3---3-7---|
---3---3-7---|
---3---3-7---|

----------------------------------|
----------------------------------|
--------0------0------0------0----|
------4------4------4------4------|
----4------4------4------4--------|
--4------5------4------2----------|


---------------------------------------------------------------|
---------------------------------------------------------------|
-------------------------------------0------0------0------0----|
-----------------------------------4------4------4------4------|
--5---5---5--5--5-5-6-6-2~-------4------4------4------4--------|
-------------------------------4------5------4------2----------|X4

----------------------------------|
----------------------------------|
----------------------------------|
-2--------------------------------|
-2-let ring-----------------------|
-2---------------PICK SCRAPE------|

----------------------------------------------|
----------------------------------------------|
----------------------------------------------|
-----------------------------------55550000---|
---2-5424-5424-6-6-3-2-5424-5424-5------------|
---2-5424-5424-6-6-3-2-5424-5424-5------------|x4

------------------------------|
------------------------------|
------------------------------|
------5-------6-------5-------|
--1-2-3-3-1-2-4-5-1-2-3-3-----|
--1-2---3-1-2---5-1-2---3-----|

---------------------------------------|
---------------------------------------|
---------------------------------------|
---------------5-------6-------5-------|
--71097976-1-2-3-3-1-2-4-5-1-2-3-3-----|
-----------1-2---3-1-2---5-1-2---3-----|X4
  trem.... pm      pm      pm
on last time hold last note
Suggest correction
comments
print report bad tab
guest
You may want to rate the tab now too:
select rating
Wanna post a correction for this tab? Suggest correction