Oops, an error
Loading. Please wait.

Nymphetamine bass

version 4
version 4
907 views 1 this week
2 commentsread comments
1 2 3 4 5
3 more votes to show rating
add to favorites
×
Save as Personal and add changes to this tab that will be seen only by you. Learn more ›
×
You can save this tab as Personal to edit and correct it or add notes. All changes will be seen only by you. Learn more »
launch autoscroll
font size
0
reset
guitar tuner
backing track
0:00
0:00
edit
Autoscroll
slow
fast
+/-
esc
set tempo
stop
Author
Artist: Cradle Of Filth
Album: Nymphetamine
Song: Nymphetamine Overdose
Tabbed by: Kratos87
Tuning: 2 half-steps down, drop C - C, G, C, F

------------= Key =------------
h hammer on p pull off
/ slide up \ slide down
~ let ring * stop string

I figured that I might as well tab the entire song, and in
the right tuning too, since the first Nymphetamine tab I did
was just from the music video that came out before I even
bought the album. So here you go.

Intro I (0:00)
F |------------------------------------------------------------------------------------------------|
C |0-------0---0-0-0h1-1-1-------------------------------------------------------------------------| x4
G |------------------------2---2-------------------------------------------------------------------|
C |--------------------------------4---4---5---5---4---4---2---2---4---4---5---5---4---4---2---2---|

Intro II (0:41)
F |----------------|
C |----------------| x1
G |----------------|
C |2~--------------|

Verse I (0:47) (Faster)
F |----------------------------------------------------------------|
C |----------------------------------------------------------------| x5
G |--------2---------------4---------------1-------------------2---|
C |2-2---2---3---3-2-2---2---5---5-2-2---2---3---3-2---2---2-------|

Verse II (1:13)
F |------------------------------------------------|
C |2--2--2--2--1--1--1--1--------------------------| x4
G |------------------------3--3--3--3--------------|
C |------------------------------------333333333333|

Verse I (1:34) x4

Bridge I (1:55)
F |--------------------------------|
C |--------------------------------| x1
G |--------------------------------|
C |2-------2---2---5-------5---1---|

Verse III (2:00)
F |----------------------------------------------------------------|
C |----------------------------------------------------------------|
G |----------------------------------------------------------------|
C |2---------------5-4-2-4-5-4-2-4-6---------------6-------3-------|
| | x4
F |----------------------------------------------------------------|
C |----------------------------------------------------------------|
G |----------------------------------------------------------------|
C |2---------------5-4-2-4-5-4-2-4-5---------------5-------0-------|

Interlude Intro (2:32)
F |--------------------------------------------------------------------------------|
C |--------------------------------------------------------------------------------| x1
G |--------------------------------------------------------------------------------|
C |2---------------5-4-2-4-5-4-2-4-6---------------6-------3-------0~~~~-~~~-~~-~--|

Interlude I (2:51) (Slower)
(I hope your bass doesn't have seventy frets on it. Just do 7, then pull off to 0.)
F |------------------------------------------------------------------------------------------------|
C |----------------------------------------------------------------------------------------023-2-0-|
G |------------------------------------------------------------------------------------------------|
C |0-----------3----------/8----\5---h70-----------0-----------3----------/8----\5---h70-----------|
| |
F |------------------------------------------------------------------------------------------------|
C |-----------------------------------------------------------------------------------------------0| x1
G |----------------------------------------------------------------------------------------------0-|
C |0-----------3----------/8----\5---h70-----------0-----------3----------/8----\5---h70-----02----|
| |
F |------------------------------------------------------------------------------------------------|
C |------------------------------------------------------------------------------------------------|
G |------------------------------------------------------------------------------------------------|
C |0-----------3----------/8----\5---h70-----------0-----------3----------/8----\5---h70~----------|

Interlude II (4:01)
F |------------------------------------------------------------------------------------------------|
C |------------------------------------------------------------------------------------------------| x2
G |0-0-0-0-0-0-------------0-0-0-0-0-0-------------0-0-0-0-0-0-------------------------------------|
C |------------5-5-5-5-5-5-------------3-3-3-3-3-3-------------5-5-5-5-5-5-3-3-3-3-3-3-5-5-5-5-5-5-|

Interlude III (4:24)
F |------------------------------------------------------------------------------------------------|
C |------------------------------------------------------------------------------------------------| x2
G |5-5-5-5-5-5-5-5-5-5-5-5-3-3-3-3-3-3-3-3-3-3-3-3-1-1-1-1-1-1-1-1-1-1-0-1-0-0-0-0-0-0-0-0-3-0-3-0-|
C |------------------------------------------------------------------------------------------------|

Interlude IV (4:48)
F |----------------------------------------------------------------------------------------------------|
C |----------------------------------------------------------------------------------------------------| x1
G |3-3-2-----1-----------------2-----1-----------------2-----1-----------------2-----1-----------------|
C |----------------5-----6-----------------5-----6-----------------5-----6-----------------5-----6-----|

Interlude V (5:12)
F |------------------------|
C |------------------------| x1
G |------------------------|
C |0~~~~-~~~-~~-~----------|

Interlude VI (5:24)
F |------------------------------------------------|
C |------------------------------------------------| x2
G |5-----------------------------------5-----------|
C |------------3----------/8----\5-----------------|

Interlude II (5:47) x2
Interlude III (6:11) x4

Interlude Ending (5:57)
F |------------------------|
C |------------------------| x1
G |3-----3-----------------|
C |--------0~~~~-~~~-~~-~--|

Intro Modification (7:16)
F |----------------------------------------------------------------|
C |----------------------------------------------------------------| x1
G |----------------------------------------------------------------|
C |4---4---5---5---4---4---2---2---4---4---5---5---4---4---2---2---|

Intro I (7:22) x4
Bridge I (8:04) x1
Verse III (8:09) x4 (Fourth time: ONLY play TOP line)
Verse I (8:46) x4 (hold the last note last time...)

The end.
Suggest correction
Creating personal tab
Creating personal tab
You can edit any tab online and save it as your Personal.

You can edit, replace or remove any tab part or add personal notes – all changes will be seen only by you.

Personal tabs can be accessed anytime from any device, even offline.
Learn more »
Give kudos to tab author, rate the tab!
1 2 3 4 5
comments
print report bad tab
2 comments total.
0 reply
morbid_vampire 10 Oct 16, 2007 06:39 PM

WTF!

+1 reply
gibsonbassist 10 Dec 20, 2007 08:21 PM

its overdose

guest
You may want to rate the tab now too:
select rating
Wanna post a correction for this tab? Suggest correction