Oops, an error
Loading. Please wait.

Pallid Reflection tab

576 views 1 this week
no commentswrite comment
1 2 3 4 5
x 3
add to favorites
×
Save as Personal and add changes to this tab that will be seen only by you. Learn more ›
×
You can save this tab as Personal to edit and correct it or add notes. All changes will be seen only by you. Learn more »
launch autoscroll
font size
0
reset
how to read this tab
guitar tuner
edit
Autoscroll
slow
fast
+/-
esc
set tempo
stop
CRADLE OF FILTH

PALLID REFLECTION

DGCFAD


TABBED BY andherembrace


-----------------------------------------------------------------|
-5-5-5-5-5-5-5-5-5-5-5-5-5-5-5-5-5-5-5-5-5-5-5-5-4-4-4-4-5-5-7-7-|
-4-4-4-4-4-4-4-4-4-4-4-4-4-4-4-4-5-5-5-5-5-5-5-5-5-5-5-5-5-5-5-5-|
-----------------------------------------------------------------|
-----------------------------------------------------------------|
-----------------------------------------------------------------|


0:07
-----------------------------------------------------------------|
-5-5-5-5-5-5-5-5-5-5-5-5-5-5-5-5-5-5-5-5-5-5-5-5-4-4-4-4-5-5-7-7-|
-4-4-4-4-4-4-4-4-4-4-4-4-4-4-4-4-5-5-5-5-5-5-5-5-5-5-5-5-5-5-5-5-|
-----------------------------------------------------------------|
-----------------------------------------------------------------|
-----------------------------------------------------------------|


0:14

1
------------------------------------------------------------------|
------------------------------------------------------------------|
---------------------------------------------------------__-------|
--------------------------------------------7-----------/  \------|
7--7-7--9-10--9--7-7--9-10-9-7----7-9-10-9-----10-9-10-9-10-9-7-9-|
-------------------------------8----------------------------------|

2
-----------------------------------------------------------------|
-----------------------------------------------------------------|
-----------------------------------------------------------------|
---------------------------------2-2-2-2-2-2-2-2-2-2-2-2-2-2-2-2-|
-2-2-2-2-2-2-2-2-2-2-2-2-2-2-2-2-3-3-3-3-3-3-3-3-3-3-3-3-3-3-3-3-|
-0-0-0-0-0-0-0-0-0-0-0-0-0-0-0-0---------------------------------|


1
-----------------------------------------------------------------|
-----------------------------------------------------------------|
-----------------------------------------------------------------|
-------------------------------------------7---------9-7---------|
7--7-7--9-10--9--7-7--9-10-9-7----7-9-10-9---10-9-10-----10-9----|
-------------------------------8---------------------------------|
2
-----------------------------------------------------------------|
-----------------------------------------------------------------|
-----------------------------------------------------------------|
---------------------------------2-2-2-2-2-2-2-2-2-2-2-2-2-2-2-2-|
-2-2-2-2-2-2-2-2-2-2-2-2-2-2-2-2-3-3-3-3-3-3-3-3-3-3-3-3-3-3-3-3-|
-0-0-0-0-0-0-0-0-0-0-0-0-0-0-0-0---------------------------------|



0:27

-------------------------------------------------|
-------------------------------------------------|
-------------------------------------------------|
-9----12--9----12-11-9---10---12--14----12-11-10-|
-7----10--7----10--9-7---8----10--12----10-9--8--|
-7----10--7----10--9-7---8----10--12----10-9--8--|


-------------------------------------------------|
-------------------------------------------------|
-------------------------------------------------|
-9----12--9----12-11-9---10---12--14----12-11-10-|
-7----10--7----10--9-7---8----10--12----10-9--8--|
-7----10--7----10--9-7---8----10--12----10-9--8--|


0:41

------------------------------------------------------------------|
------------------------------------------------------------------|
------------------------------------------------------------------|
------------------------------------------------------------------|
------------------------------------------------------------------|
-0000000000003333000000003322000011111111111133335555555533221111-|

--------------------------------------------------------------------|
--------------------------------------------------------------------|
--------------------------------------------------------------------|
--------------------------------------------------------------------|
--------------------------------------------------------------5-4-3-|
-000000000000333300000000332200001111111111113333-5-5-5-5-5-5-3-2-1-|
                                                              * *


0:55

---------------------------------------------------------------------|
---------------------------------------------------------------------|
---------------------------------------------------------------------|
-5--4----5-----5----5---5--4---------------------2-2-2-2-5-5-4-4-2-2-|
-3--2----3--2--3--2-3-2-3--2-----2-2-2-2-2-2-3-3---------------------|
---------------------------------------------------------------------|
            *     *   *
---------------------------------------------------------------------|
---------------------------------------------------------------------|
---------------------------------------------------------------------|
-5--4----5-----5----5---5--4---------------------2-2-2-2-5-5-4-4-2-2-|
-3--2----3--2--3--2-3-2-3--2-----2-2-2-2-2-2-3-3---------------------|
---------------------------------------------------------------------|
            *     *   *

1:09


1
------------------------------------------------------------------|
------------------------------------------------------------------|
---------------------------------------------------------__-------|
--------------------------------------------7-----------/  \------|
7--7-7--9-10--9--7-7--9-10-9-7----7-9-10-9-----10-9-10-9-10-9-7-9-|
-------------------------------8----------------------------------|

2
-----------------------------------------------------------------|
-----------------------------------------------------------------|
-----------------------------------------------------------------|
---------------------------------2-2-2-2-2-2-2-2-2-2-2-2-2-2-2-2-|
-2-2-2-2-2-2-2-2-2-2-2-2-2-2-2-2-3-3-3-3-3-3-3-3-3-3-3-3-3-3-3-3-|
-0-0-0-0-0-0-0-0-0-0-0-0-0-0-0-0---------------------------------|


1
-----------------------------------------------------------------|
-----------------------------------------------------------------|
-----------------------------------------------------------------|
-------------------------------------------7---------9-7---------|
7--7-7--9-10--9--7-7--9-10-9-7----7-9-10-9---10-9-10-----10-9----|
-------------------------------8---------------------------------|
2
-----------------------------------------------------------------|
-----------------------------------------------------------------|
-----------------------------------------------------------------|
---------------------------------2-2-2-2-2-2-2-2-2-2-2-2-2-2-2-2-|
-2-2-2-2-2-2-2-2-2-2-2-2-2-2-2-2-3-3-3-3-3-3-3-3-3-3-3-3-3-3-3-3-|
-0-0-0-0-0-0-0-0-0-0-0-0-0-0-0-0---------------------------------|



1:22


-------------------------------------------------|
-------------------------------------------------|
-------------------------------------------------|
-9----12--9----12-11-9---10---12--14----------10-|
-7----10--7----10--9-7---8----10--12----10-9--8--|
-7----10--7----10--9-7---8----10--12----10-9--8--|
                                         * *

-------------------------------------------------|
-------------------------------------------------|
-------------------------------------------------|
-9----12--9----12-11-9---10---12--14----------10-|
-7----10--7----10--9-7---8----10--12----10-9--8--|
-7----10--7----10--9-7---8----10--12----10-9--8--|
                                         * *

------------------------------------------------------------------|
------------------------------------------------------------------|
------------------------------------------------------------------|
------------------------------------------------------------------|
------------------------------------------------------------------|
-0000000000003333000000003322000011111111111133335555555533221111-|

----------------------------------------------------------------|
----------------------------------------------------------------|
----------------------------------------------------------------|
----------------------------------------------------------------|
----------------------------------------------------------5-4-3-|
-00000000000033330000000033220000111111111111333355555555-3-2-1-|
                                                          * *


1:50

----------------------------------------------------------------------|
----------------------------------------------------------------------|
----------------------------------------------------------------------|
-5--4----5-----5----5---5--4---------------------2-2-2-2-5-5-4-4-2-2--|
-3--2----3--2--3--2-3-2-3--2-----2-2-2-2-2-2-3-3----------------------|
----------------------------------------------------------------------|
            *     *   *


--------------------------------------------------|
--------------------------------------------------|
--------------------------------------------------|
-5--4----5-----5----5---5--4-----------2----------|
-3--2----3--2--3--2-3-2-3--2-----2--3-----5-4-2---|
------------------------------------------3-2-0---|
            *     *   *                   * * *



2:04

-------------------------------------------------------------------------|
-------------------------------------------------------------------------|
-------------------------------------------------------------------------|
--------------------------------------------------------------7----------|
-----2---4-5---2---4-----4-5-4-7-8-8-8-8-8-8-8-8-10-10-10-10----10-9-10--|
-0-0-0-0-2-3-0-0-0-2-0-0-2-3-2-5-6-6-6-6-6-6-6-6--8--8--8--8-------------|
 * *   *     *   *   * *

------------------------------------------------------------------------|
------------------------------------------------------------------------|
------------------------------------------------------------------------|
--------------------------------------------------------------7---------|
-----2---4-5---2---4-----4-5-4-7-8-8-8-8-8-8-8-8-10-10-10-10----10-9-10-|
-0-0-0-0-2-3-0-0-0-2-0-0-2-3-2-5-6-6-6-6-6-6-6-6--8--8--8--8------------|
 * *   *     *   *   * *


2:17

1
------------------------------------------------------------------|
------------------------------------------------------------------|
---------------------------------------------------------__-------|
--------------------------------------------7-----------/  \------|
7--7-7--9-10--9--7-7--9-10-9-7----7-9-10-9-----10-9-10-9-10-9-7-9-|
-------------------------------8----------------------------------|

2
-----------------------------------------------------------------|
-----------------------------------------------------------------|
-----------------------------------------------------------------|
---------------------------------2-2-2-2-2-2-2-2-2-2-2-2-2-2-2-2-|
-2-2-2-2-2-2-2-2-2-2-2-2-2-2-2-2-3-3-3-3-3-3-3-3-3-3-3-3-3-3-3-3-|
-0-0-0-0-0-0-0-0-0-0-0-0-0-0-0-0---------------------------------|


1
-----------------------------------------------------------------|
-----------------------------------------------------------------|
-----------------------------------------------------------------|
-------------------------------------------7---------9-7---------|
7--7-7--9-10--9--7-7--9-10-9-7----7-9-10-9---10-9-10-----10-9----|
-------------------------------8---------------------------------|
2
-----------------------------------------------------------------|
-----------------------------------------------------------------|
-----------------------------------------------------------------|
---------------------------------2-2-2-2-2-2-2-2-2-2-2-2-2-2-2-2-|
-2-2-2-2-2-2-2-2-2-2-2-2-2-2-2-2-3-3-3-3-3-3-3-3-3-3-3-3-3-3-3-3-|
-0-0-0-0-0-0-0-0-0-0-0-0-0-0-0-0---------------------------------|




2:31

1
----------------------------------------------------------------------|
----------------------------------------------------------------------|
--------------------------------------------------------------__------|
--------------------------------------------------7----------/  \-----|
----7---9-10---7---9-----7---9-10-----7---9-10------10-9-10-9-10-9-7-9|
0-0---0------0---0---0-0---0------8-8---8------8----------------------|
* *   *      *   *   * *   *      * *   *      *
2
-----------------------------------------------------------------------|
--------------------------------------------------------------_--------|
-------------------------------------------------------------/ \-------|
----------7-9--------7----------7-10-7~-----------10--9-7-9-7-9-7----7-|
-7-7-10-7-----7-10-7---7-7-10-7-----------------------------------10---|
-----------------------------------------------------------------------|



1
----------------------------------------------------------------------|
----------------------------------------------------------------------|
--------------------------------------------------------------__------|
--------------------------------------------------7----------/  \-----|
----7---9-10---7---9-----7---9-10-----7---9-10------10-9-10-9-10-9-7-9|
0-0---0------0---0---0-0---0------8-8---8------8----------------------|
* *   *      *   *   * *   *      * *   *      *
2
-----------------------------------------------------------------------|
--------------------------------------------------------------_--------|
-------------------------------------------------------------/ \-------|
----------7-9--------7----------7-10-7~-----------10--9-7-9-7-9-7----7-|
-7-7-10-7-----7-10-7---7-7-10-7-----------------------------------10---|
-----------------------------------------------------------------------|



2:45

--------------------------------------------------|
--------------------------------------------------|
--------------------------------------------------|
--------------------------------------------------|
-7----7-6--6-----6---6---6---6---6---6----6--6----|
-8----8\7--7-----7---4---4---4---4---3----3--3----|

--------------------------------------------------|
--------------------------------------------------|
--------------------------------------------------|
--------------------------------------------------|
-7----7-6--6-----6---6---6---6---6-6-6----6--6----|
-8----8\7--7-----7---4---4---4---4-4-3----3--3----|




3:12

--------------0-----0-------0-------0----|
--------------0--------0-------0-------0-|
--------------------------0-------0------|
-3-----5--2------------------------------|
-3-----5--2------------------------------|
-1-----3--0------------------------------|


--------------0-----0-------0-------0-----0-------0-------0-----0-------0-------0----|
--------------0--------0-------0-------0-----0-------0-------0-----0-------0-------0-|
--------------------------0-------0-------------0-------0-------------0-------0------|
-3-----5--2--------------------------------------------------------------------------|
-3-----5--2--------------------------------------------------------------------------|
-1-----3--0--------------------------------------------------------------------------|





3:26


----------------------------------------------------------------------|
----------------------------------------------------------------------|
----------------------------------------------------------------------|
-5--4----5-----5----5---5--4---------------------2-2-2-2-5-5-4-4-2-2--|
-3--2----3--2--3--2-3-2-3--2-----2-2-2-2-2-2-3-3----------------------|
----------------------------------------------------------------------|
            *     *   *

----------------------------------------------------------------------|
----------------------------------------------------------------------|
----------------------------------------------------------------------|
-5--4----5-----5----5---5--4---------------------2-2-2-2-5-5-4-4-2-2--|
-3--2----3--2--3--2-3-2-3--2-----2-2-2-2-2-2-3-3----------------------|
----------------------------------------------------------------------|
            *     *   *

3:40

1
------------------------------------------------------------------------|
------------------------------------------------------------------------|
------------------------------------------------------------------------|
----------------------7-------------------------------------------------|
-7-----9-10---9-7-7-----9-10---7-7-7---9-10-10---9/10-10/12-12/14-14-15-|
------------------------------------------------------------------------|
2
-----------------------------------------------------------------|
-----------------------------------------------------------------|
-----------------------------------------------------------------|
---------------------------------2-2-2-2-2-2-2-2-2-2-2-2-2-2-2-2-|
-2-2-2-2-2-2-2-2-2-2-2-2-2-2-2-2-3-3-3-3-3-3-3-3-3-3-3-3-3-3-3-3-|
-0-0-0-0-0-0-0-0-0-0-0-0-0-0-0-0---------------------------------|



1
------------------------------------------------------------------------|
------------------------------------------------------------------------|
------------------------------------------------------------------------|
----------------------7-------------------------------------------------|
-7-----9-10---9-7-7-----9-10---7-------9--10-----9/10-10/12-12/14-14-15-|
------------------------------------------------------------------------|
2
-----------------------------------------------------------------|
-----------------------------------------------------------------|
-----------------------------------------------------------------|
---------------------------------2-2-2-2-2-2-2-2-2-2-2-2-2-2-2-2-|
-2-2-2-2-2-2-2-2-2-2-2-2-2-2-2-2-3-3-3-3-3-3-3-3-3-3-3-3-3-3-3-3-|
-0-0-0-0-0-0-0-0-0-0-0-0-0-0-0-0---------------------------------|



3:53

------------------------------------------------------------------------|
------------------------------------------------------------------------|
------------------------------------------------------------------------|
--------------------------------------------------------------7---------|
-----2---4-5---2---4-----4-5-4-7-8-8-8-8-8-8-8-8-10-10-10-10----10-9-10-|
-0-0-0-0-2/3-0-0-0-2-0-0-2-3-2-5-6-6-6-6-6-6-6-6--8--8--8--8------------|
 * *   *     *   *   * *

------------------------------------------------------------------------|
------------------------------------------------------------------------|
------------------------------------------------------------------------|
--------------------------------------------------------------7---------|
-----2---4-5---2---4-----4-5-4-7-8-8-8-8-8-8-8-8-10-10-10-10----10-9-10-|
-0-0-0-0-2/3-0-0-0-2-0-0-2-3-2-5-6-6-6-6-6-6-6-6--8--8--8--8------------|
 * *   *     *   *   * *


4:07

1
-----------------------------------------------------------------|
----------------------------------------------12---swell---------|
--9--swell-----------------------fade----------------------------|
-----------------------------------------------------------------|
-----------------------------------------------------------------|
-----------------------------------------------------------------|
2
-----------------------------------------------------------------|
-5-5-5-5-5-5-5-5-5-5-5-5-5-5-5-5-5-5-5-5-5-5-5-5-4-4-4-4-5-5-7-7-|
-4-4-4-4-4-4-4-4-4-4-4-4-4-4-4-4-5-5-5-5-5-5-5-5-5-5-5-5-5-5-5-5-|
-----------------------------------------------------------------|
-----------------------------------------------------------------|
-----------------------------------------------------------------|

1
---------------------------------------------------------------|
-13\12-12-----------------------12\8-8----------8\7-7----------|
----------------------------------------------------------7----|
---------------------------------------------------------------|
---------------------------------------------------------------|
---------------------------------------------------------------|
2
-----------------------------------------------------------------|
-5-5-5-5-5-5-5-5-5-5-5-5-5-5-5-5-5-5-5-5-5-5-5-5-4-4-4-4-5-5-7-7-|
-4-4-4-4-4-4-4-4-4-4-4-4-4-4-4-4-5-5-5-5-5-5-5-5-5-5-5-5-5-5-5-5-|
-----------------------------------------------------------------|
-----------------------------------------------------------------|
-----------------------------------------------------------------|



4:21
1
---------------------------------------------------------------|
---------------------------------------------------------------|
-9------------------------------12---------11-----------7------|
---------------------------------------------------------------|
---------------------------------------------------------------|
---------------------------------------------------------------|
2
-----------------------------------------------------------------|
-----------------------------------------------------------------|
-----------------------------------------------------------------|
---------------------------------2-2-2-2-2-2-2-2-2-2-2-2-2-2-2-2-|
-2-2-2-2-2-2-2-2-2-2-2-2-2-2-2-2-3-3-3-3-3-3-3-3-3-3-3-3-3-3-3-3-|
-0-0-0-0-0-0-0-0-0-0-0-0-0-0-0-0---------------------------------|


1                                                  end of 1st solo
---------------------------------------------------------------|
---------------------------------------------------------------|
-9------------------------------12---------11-----------14/16--|
---------------------------------------------------------------|
---------------------------------------------------------------|
---------------------------------------------------------------|
2
-----------------------------------------------------------------|
-----------------------------------------------------------------|
-----------------------------------------------------------------|
---------------------------------2-2-2-2-2-2-2-2-2-2-2-2-2-2-2-2-|
-2-2-2-2-2-2-2-2-2-2-2-2-2-2-2-2-3-3-3-3-3-3-3-3-3-3-3-3-3-3-3-3-|
-0-0-0-0-0-0-0-0-0-0-0-0-0-0-0-0---------------------------------|



4:34


1                                        
----------------------------------------------__-----------------------|
---------------------------------------------/  \----------------------|
----14-16----14-17----14-16----14-16-17-16-14-16-14-12--12\11-11--12---|
-14-------14-------14-------14---------------------------------------12|
-----------------------------------------------------------------------|
-----------------------------------------------------------------------|
2
-----------------------------------------------------------------|
-----------------------------------------------------------------|
-----------------------------------------------------------------|
---------------------------------2-2-2-2-2-2-2-2-2-2-2-2-2-2-2-2-|
-2-2-2-2-2-2-2-2-2-2-2-2-2-2-2-2-3-3-3-3-3-3-3-3-3-3-3-3-3-3-3-3-|
-0-0-0-0-0-0-0-0-0-0-0-0-0-0-0-0---------------------------------|



4:41


1                                        
----------------------------------------------__-----|
---------------------------------------------/  \----|
----14-16----14-17----14-16----14-16-17-16-14-16-14--|
-14-------14-------14-------14-----------------------|
-----------------------------------------------------|
-----------------------------------------------------|
CONT.                                       
----------------------------------_____----------------|
-17----15------------------------/     \---------------|
----14----14-17-14-16-14-17-19-17-19-17-16-17-16-14----|
----------------------------------------------------17-|
-------------------------------------------------------|
-------------------------------------------------------|

2
-----------------------------------------------------------------|
-----------------------------------------------------------------|
-----------------------------------------------------------------|
---------------------------------2-2-2-2-2-2-2-2-2-2-2-2-2-2-2-2-|
-2-2-2-2-2-2-2-2-2-2-2-2-2-2-2-2-3-3-3-3-3-3-3-3-3-3-3-3-3-3-3-3-|
-0-0-0-0-0-0-0-0-0-0-0-0-0-0-0-0---------------------------------|



4:48
1                                        
----------------------------------------------__-----|
---------------------------------------------/  \----|
----14-16----14-17----14-16----14-16-17-16-14-16-14--|
-14-------14-------14-------14-----------------------|
-----------------------------------------------------|
-----------------------------------------------------|
CONT.                                       
-------------------------------------------------|
-------------------------------------------------|
-16-14-12-14-16-14-12-14-16-14-12-14-16-14-12-14-|
-------------------------------------------------|
-------------------------------------------------|
-------------------------------------------------|
CONT.                                       
-------------------------------------------------|
-------------------------------------------------|
-14-12-11-12-14-12-11-12-14-12-11-12-14-12-11----|
----------------------------------------------12-|
-------------------------------------------------|
-------------------------------------------------|

2
-----------------------------------------------------------------|
-----------------------------------------------------------------|
-----------------------------------------------------------------|
---------------------------------2-2-2-2-2-2-2-2-2-2-2-2-2-2-2-2-|
-2-2-2-2-2-2-2-2-2-2-2-2-2-2-2-2-3-3-3-3-3-3-3-3-3-3-3-3-3-3-3-3-|
-0-0-0-0-0-0-0-0-0-0-0-0-0-0-0-0---------------------------------|



4:55


1                                        
----------------------------------------------__-----|
---------------------------------------------/  \----|
----14-16----14-17----14-16----14-16-17-16-14-16-14--|
-14-------14-------14-------14-----------------------|
-----------------------------------------------------|
-----------------------------------------------------|
CONT.                                       
----------------------------------_____----------------|
-17----15------------------------/     \---------------|
----14----14-17-14-16-14-17-19-17-19-17-16-17-16-14----|
----------------------------------------------------17-|
-------------------------------------------------------|
-------------------------------------------------------|

2
-----------------------------------------------------------------|
-----------------------------------------------------------------|
-----------------------------------------------------------------|
---------------------------------2-2-2-2-2-2-2-2-2-2-2-2-2-2-2-2-|
-2-2-2-2-2-2-2-2-2-2-2-2-2-2-2-2-3-3-3-3-3-3-3-3-3-3-3-3-3-3-3-3-|
-0-0-0-0-0-0-0-0-0-0-0-0-0-0-0-0---------------------------------|


5:02

REPEATS /FADES

            
            
Suggest correction
Creating personal tab
Creating personal tab
You can edit any tab online and save it as your Personal.

You can edit, replace or remove any tab part or add personal notes – all changes will be seen only by you.

Personal tabs can be accessed anytime from any device, even offline.
Learn more »
Give kudos to tab author, rate the tab!
1 2 3 4 5
comments
print report bad tab
guest
You may want to rate the tab now too:
select rating
Wanna post a correction for this tab? Suggest correction