Oops, an error
Loading. Please wait.

Portrait Of The Dead Countess bass

90 views 1 this week
no commentswrite comment
1 2 3 4 5
3 more votes to show rating
add to favorites
×
Save as Personal and add changes to this tab that will be seen only by you. Learn more ›
×
You can save this tab as Personal to edit and correct it or add notes. All changes will be seen only by you. Learn more »
launch autoscroll
font size
0
reset
guitar tuner
edit
Autoscroll
slow
fast
+/-
esc
set tempo
stop
Author
Difficulty
Cradle of Filth -  Portrait of the Dead Countess  

Drop D
G
D
A
D




-------------------------|-------------------------|--------------------|
-------------------------|-------------------------|--------------------|
--5--------5--------5----|--5--------5--------5----|--5--------5--------|
-------------------------|-------------------------|--------------------|



--------------------|--------------------|--------------------|
--------------------|-----------2--------|-----------2--------|
--5--------5--------|--3-----------------|--3-----------------|
--------------------|--------------------|--------------------|



--------------------|--------------------|--------------------|
-----------2--------|-----------2--------|--------------------|
--3-----------------|--3-----------------|--5--------5--------|
--------------------|--------------------|--------------------|



--------------------|--------------------|--------------------|
--------------------|--------------------|--------------------|
--5--------5--------|--5--------5--------|--5--------5--------|
--------------------|--------------------|--------------------|



--------------------|--------------------|--------------------|
-----------2--------|-----------2--------|-----------2--------|
--3-----------------|--3-----------------|--3-----------------|
--------------------|--------------------|--------------------|



--------------------|--------------------|--------------------|
-----------2--------|--------------------|--------------------|
--3-----------------|--5--------5--------|--5--------5--------|
--------------------|--------------------|--------------------|



--------------------|--------------------|--------------------|
--------------------|--------------------|-----------2--------|
--5--------5--------|--5--------5--------|--3-----------------|
--------------------|--------------------|--------------------|



--------------------|--------------------|--------------------|
-----------2--------|-----------2--------|-----------2--------|
--3-----------------|--3-----------------|--3-----------------|
--------------------|--------------------|--------------------|



--------------------|--------------------|--------------------|
--------------------|--------------------|--------------------|
--5--------5--------|--5--------5--------|--5--------5--------|
--------------------|--------------------|--------------------|



--------------------|--------------------|--------------------|
--------------------|-----------2--------|-----------2--------|
--5--------5--------|--3-----------------|--3-----------------|
--------------------|--------------------|--------------------|



--------------------|--------------------|--------------------------------|
-----------2--------|-----------2--------|--------------------------------|
--3-----------------|--3-----------------|--5----5----5----5----5----5----|
--------------------|--------------------|--------------------------------|



--------------------------------|--------------------------------|
--------------------------------|--------------------------------|
--5----5----5----5----5----5----|--5----5----5----5----5----5----|
--------------------------------|--------------------------------|



--------------------------------|--------------------------------|
--------------------------------|--------------------------------|
--8----8----8----7----7----7----|--3----3----3----3----3----3----|
--------------------------------|--------------------------------|



--------------------------------|--------------------------------|
--------------------------------|--------------------------------|
--3----3----3----3----3----3----|--3----3----3----3----3----3----|
--------------------------------|--------------------------------|



--------------------------------|--------------------------------|
--------------------------------|--------------------------------|
--8----8----8----7----7----7----|--5----5----5----5----5----5----|
--------------------------------|--------------------------------|



--------------------------------|--------------------------------|
--------------------------------|--------------------------------|
--5----5----5----5----5----5----|--5----5----5----5----5----5----|
--------------------------------|--------------------------------|



--------------------------------|--------------------------------|
--------------------------------|--------------------------------|
--8----8----8----7----7----7----|--3----3----3----3----3----3----|
--------------------------------|--------------------------------|



--------------------------------|--------------------------------|
--------------------------------|--------------------------------|
--3----3----3----3----3----3----|--3----3----3----3----3----3----|
--------------------------------|--------------------------------|



--------------------------------|-------------------|-------------------|
--------------------------------|-------------------|-------------------|
--8----8----8----7----7----7----|--5----------------|----------3--------|
--------------------------------|-------------------|-------------------|



----------------------|-------------------|-------------------|
----------------------|-------------------|-------------------|
--1----------0--------|-------------------|-------------------|
----------------------|--1----------------|----------3--------|



-------------------|--------------------|--------------------------------|
-------------------|--------------------|--------------------------------|
--1----------------|--1--------0--------|--5----5----5----5----5----5----|
-------------------|--------------------|--------------------------------|



--------------------------------|--------------------------------|
--------------------------------|--------------------------------|
--5----5----5----3----3----3----|--1----1----1----1----1----1----|
--------------------------------|--------------------------------|



--------------------------------|--------------------------------|
--------------------------------|--------------------------------|
--1----1----1----0----0----0----|--------------------------------|
--------------------------------|--1----1----1----1----1----1----|



--------------------------------|--------------------------------|
--------------------------------|--------------------------------|
--------------------------------|--------------------------------|
--1----1----1----0----0----0----|--5----5----5----5----5----5----|



--------------------------------|--------------------------------|
--------------------------------|--------------------------------|
--1----1----1----0----0----0----|--5----5----5----5----5----5----|
--------------------------------|--------------------------------|



--------------------------------|--------------------------------|
--------------------------------|--------------------------------|
--5----5----5----3----3----3----|--1----1----1----1----1----1----|
--------------------------------|--------------------------------|



--------------------------------|--------------------------------|
--------------------------------|--------------------------------|
--1----1----1----0----0----0----|--------------------------------|
--------------------------------|--1----1----1----1----1----1----|



--------------------------------|--------------------------------|
--------------------------------|--------------------------------|
--------------------------------|--------------------------------|
--1----1----1----0----0----0----|--5----5----5----5----5----5----|



--------------------------------|--------------------------------|
--------------------------------|--------------------------------|
--1----1----1----0----0----0----|--5----5----5----5----5----5----|
--------------------------------|--------------------------------|



--------------------------------|--------------------------------|
--------------------------------|--------------------------------|
--5----5----5----3----3----3----|--1----1----1----1----1----1----|
--------------------------------|--------------------------------|



--------------------------------|--------------------------------|
--------------------------------|--------------------------------|
--1----1----1----0----0----0----|--------------------------------|
--------------------------------|--1----1----1----1----1----1----|



--------------------------------|--------------------------------|
--------------------------------|--------------------------------|
--------------------------------|--------------------------------|
--1----1----1----0----0----0----|--5----5----5----5----5----5----|



--------------------------------|-------------------|------------------|
--------------------------------|-------------------|------------------|
--1----1----1----0----0----0----|-------------------|------------------|
--------------------------------|--3----------------|------------------|



--------------------------|--------------------------|
--------------------------|--------------------------|
--------------------------|--------------------------|
--3--3--3--3--3--3--3--3--|--5--5--5--5--8--8--8--8--|



--------------------------|--------------------------|
--------------------------|--------------------------|
--------------------------|--------------------------|
--3--3--3--3--3--3--3--3--|--2--2--2--2--2--2--2--2--|



--------------------------|--------------------------|
--------------------------|--------------------------|
--------------------------|--------------------------|
--3--3--3--3--3--3--3--3--|--5--5--5--5--8--8--8--8--|



--------------------------|--------------------------|
--------------------------|--------------------------|
--------------------------|--------------------------|
--4--4--4--4--4--4--4--4--|--3--3--3--3--3--3--3--3--|



--------------------------------------------------------------------------|
--------------------------------------------------------------------------|
--------------------------------------------------------------------------|
--4--4--4--4--4--4--4--4----7--7--7--7--9--9--9--9----5----5----5----5----|



----------------------|----------------------|----------------------|
----------------------|----------------------|----------------------|
----------------------|----------------------|----------------------|
--1----1----1----1----|--1----1----1----1----|--8----8----7----7----|



----------------------|----------------------|----------------------|
----------------------|----------------------|----------------------|
----------------------|----------------------|----------------------|
--5----5----5----5----|--1----1----1----1----|--1----1----1----1----|



----------------------|----------------------|----------------------|
----------------------|----------------------|----------------------|
----------------------|----------------------|----------------------|
--8----8----7----7----|--5----5----5----5----|--1----1----1----1----|



----------------------|----------------------|----------------------|
----------------------|----------------------|----------------------|
----------------------|----------------------|----------------------|
--1----1----1----1----|--8----8----7----7----|--5----5----5----5----|



----------------------|----------------------|----------------------|
----------------------|----------------------|----------------------|
----------------------|----------------------|----------------------|
--1----1----1----1----|--1----1----1----1----|--8----8----7----7----|



--------------------------------|--------------------------------|
--------------------------------|--------------------------------|
--------------------------------|--------------------------------|
--5----5----5----5----5----5----|--1----1----1----1----1----1----|



--------------------------------|--------------------------------|
--------------------------------|--------------------------------|
--------------------------------|--------------------------------|
--1----1----1----1----1----1----|--8----8----8----7----7----7----|



--------------------------------|--------------------------------|
--------------------------------|--------------------------------|
--------------------------------|--------------------------------|
--5----5----5----5----5----5----|--1----1----1----1----1----1----|



--------------------------------|--------------------------------|
--------------------------------|--------------------------------|
--------------------------------|--------------------------------|
--1----1----1----1----1----1----|--8----8----8----7----7----7----|



--------------------------------|--------------------------------|
--------------------------------|--------------------------------|
--5----5----5----5----5----5----|--5----5----5----3----3----3----|
--------------------------------|--------------------------------|



--------------------------------|--------------------------------|
--------------------------------|--------------------------------|
--1----1----1----1----1----1----|--1----1----1----0----0----0----|
--------------------------------|--------------------------------|



--------------------------------|--------------------------------|
--------------------------------|--------------------------------|
--------------------------------|--------------------------------|
--1----1----1----1----1----1----|--1----1----1----0----0----0----|



--------------------------------|--------------------------------|
--------------------------------|--------------------------------|
--------------------------------|--1----1----1----0----0----0----|
--5----5----5----5----5----5----|--------------------------------|



--------------------------------|--------------------------------|
--------------------------------|--------------------------------|
--5----5----5----5----5----5----|--5----5----5----3----3----3----|
--------------------------------|--------------------------------|



--------------------------------|--------------------------------|
--------------------------------|--------------------------------|
--1----1----1----1----1----1----|--1----1----1----0----0----0----|
--------------------------------|--------------------------------|



--------------------------------|--------------------------------|
--------------------------------|--------------------------------|
--------------------------------|--------------------------------|
--1----1----1----1----1----1----|--1----1----1----0----0----0----|



--------------------------------|--------------------------------|
--------------------------------|--------------------------------|
--------------------------------|--1----1----1----0----0----0----|
--5----5----5----5----5----5----|--------------------------------|



----------------------|----------------------|----------------------|
----------------------|----------------------|----------------------|
----------------------|----------------------|----------------------|
--5----5----5----5----|--1----1----1----1----|--1----1----1----1----|



----------------------|----------------------|----------------------|
----------------------|----------------------|----------------------|
----------------------|----------------------|----------------------|
--8----8----7----7----|--5----5----5----5----|--1----1----1----1----|



--------------------------------------------------------------------------|
--------------------------------------------------------------------------|
--------------------------------------------------------------------------|
--1----1----1----1-----8----8----7----7-----5----5----5----5----5----5----|



--------------------------------|--------------------------------|
--------------------------------|--------------------------------|
--------------------------------|--------------------------------|
--1----1----1----1----1----1----|--1----1----1----1----1----1----|



--------------------------------|--------------------------------|
--------------------------------|--------------------------------|
--------------------------------|--------------------------------|
--8----8----8----7----7----7----|--5----5----5----5----5----5----|



--------------------------------|--------------------------------|
--------------------------------|--------------------------------|
--------------------------------|--------------------------------|
--1----1----1----1----1----1----|--1----1----1----1----1----1----|



--------------------------------|-------------------|-------------------|
--------------------------------|-------------------|-------------------|
--------------------------------|-------------------|-------------------|
--8----8----8----7----7----7----|--5----------------|--1----------------|



-------------------|--------------------------|--------------------------|
-------------------|--------------------------|--------------------------|
-------------------|--------------------------|--------------------------|
--1----------------|--8--------7----7----7----|--7--------7----7----7----|



--------------------------|--------------------------|-------------------|
--------------------------|--------------------------|-------------------|
--------------------------|--------------------------|-------------------|
--7--------7----7----7----|--7--------7----7----7----|--0----------------|






------------------|------------------|-------------------|
------------------|------------------|-------------------|
------------------|------------------|-------------------|
------------------|------------------|--0----------------|



-------------------|------------------|-------------------|
-------------------|------------------|-------------------|
-------------------|------------------|-------------------|
--0----------------|------------------|--0----------------|



------------------|-------------------|----------------------------------|
------------------|-------------------|----------------------------------|
------------------|-------------------|----------------------------------|
------------------|--5----------------|--8----7----8----10----8----10----|



|-------------------------------|------------------------------|
|*------------------------------|------------------------------|
|*--5--------5----5--------5----|--5--------5----5--------5----|
|-------------------------------|------------------------------|



------------------------------|-------------------------------|
------------------------------|-------------------------------|
--1--------1----1--------1----|--3--------3----3----1----3----|
------------------------------|-------------------------------|



------------------------------|------------------------------|
------------------------------|------------------------------|
--5--------5----5--------5----|--5--------5----5--------5----|
------------------------------|------------------------------|



------------------------------|-----------------------------------||
------------------------------|----------------------------------*||
--1--------1----1--------1----|----------------------------------*||
------------------------------|--8----7----8----10----8----10-----||



-------------------|------------------|-------------------|
-------------------|------------------|-------------------|
--4----------------|------------------|--4----------------|
-------------------|------------------|-------------------|



-------------------|------------------|-------------------|
-------------------|------------------|-------------------|
--3----------------|------------------|--3----------------|
-------------------|------------------|-------------------|



-------------------|------------------|-------------------|
-------------------|------------------|-------------------|
--0----------------|------------------|--0----------------|
-------------------|------------------|-------------------|



--------------------------------|--------------------------------|
--------------------------------|--------------------------------|
--------------------------------|--------------------------------|
--6----6----6----6----6----6----|--7----7----6----6----4----4----|



--------------------------------|--------------------------------|
--------------------------------|--------------------------------|
--------------------------------|--------------------------------|
--6----6----7----7----6----6----|--4----4----6----6----7----7----|



------------------------------|------------------------------|
------------------------------|------------------------------|
--5--------5----5--------5----|--5--------5----5--------5----|
------------------------------|------------------------------|



------------------------------|-------------------------------|
------------------------------|-------------------------------|
--1--------1----1--------1----|--3--------3----3----1----3----|
------------------------------|-------------------------------|



------------------------------|------------------------------|
------------------------------|------------------------------|
--5--------5----5--------5----|--5--------5----5--------5----|
------------------------------|------------------------------|



------------------------------|----------------------------------|
------------------------------|----------------------------------|
--1--------1----1--------1----|----------------------------------|
------------------------------|--8----7----8----10----8----10----|



------------------------------|------------------------------|
------------------------------|------------------------------|
--5--------5----5--------5----|--5--------5----5--------5----|
------------------------------|------------------------------|



------------------------------|-------------------------------|
------------------------------|-------------------------------|
--1--------1----1--------1----|--3--------3----3----1----3----|
------------------------------|-------------------------------|



------------------------------|------------------------------|
------------------------------|------------------------------|
--5--------5----5--------5----|--5--------5----5--------5----|
------------------------------|------------------------------|



------------------------------|----------------------------------|
------------------------------|----------------------------------|
--1--------1----1--------1----|----------------------------------|
------------------------------|--8----7----8----10----8----10----|



--------------------|----------------------|
--------------------|----------------------|
--3------------5----|--6----8----5----6----|
--------------------|----------------------|



------------------------------------|------------------------------------|
------------------------------------|------------------------------------|
--2----2--2--2--2--2----2--2--2--2--|--1----1--1--1--1--1----1--1--1--1--|
------------------------------------|------------------------------------|



--------------------|----------------------|
--------------------|----------------------|
--3------------5----|--6----8----5----6----|
--------------------|----------------------|



------------------------------------|------------------------------------|
------------------------------------|------------------------------------|
--2----2--2--2--2--2----2--2--2--2--|--1----1--1--1--1--1----1--1--1--1--|
------------------------------------|------------------------------------|



--------------------|----------------------|
--------------------|----------------------|
--3------------5----|--6----8----5----6----|
--------------------|----------------------|



------------------------------------|------------------------------------|
------------------------------------|------------------------------------|
--2----2--2--2--2--2----2--2--2--2--|--1----1--1--1--1--1----1--1--1--1--|
------------------------------------|------------------------------------|



--------------------|----------------------|
--------------------|----------------------|
--3------------5----|--6----8----5----6----|
--------------------|----------------------|



------------------------------------|------------------------------------|
------------------------------------|------------------------------------|
--2----2--2--2--2--2----2--2--2--2--|--1----1--1--1--1--1----1--1--1--1--|
------------------------------------|------------------------------------|



--------------------|----------------------|-------------------|
--------------------|----------------------|-------------------|
--3------------5----|--6----8----5----6----|--2----------------|
--------------------|----------------------|-------------------|



-------------------|--------------------|----------------------|
-------------------|--------------------|----------------------|
--1----------------|--3------------5----|--6----8----5----6----|
-------------------|--------------------|----------------------|



-------------------|-------------------|
-------------------|-------------------|
--2----------------|--1----------------|
-------------------|-------------------|




------------------|------------------|--------------------|
------------------|------------------|--------------------|
------------------|------------------|--3------------5----|
------------------|------------------|--------------------|



----------------------|-------------------|-------------------|
----------------------|-------------------|-------------------|
--6----8----5----6----|--2----------------|--1----------------|
----------------------|-------------------|-------------------|



--------------------|----------------------|-------------------|
--------------------|----------------------|-------------------|
--3------------5----|--6----8----5----6----|--2----------------|
--------------------|----------------------|-------------------|



-------------------|--------------------|----------------------|
-------------------|--------------------|----------------------|
--1----------------|--3------------5----|--6----8----5----6----|
-------------------|--------------------|----------------------|



-------------------|-------------------|--------------------|
-------------------|-------------------|--------------------|
--2----------------|--1----------------|--3------------5----|
-------------------|-------------------|--------------------|



----------------------|-------------------|-------------------|
----------------------|-------------------|-------------------|
--6----8----5----6----|--2----------------|--1----------------|
----------------------|-------------------|-------------------|



--------------------|----------------------|-------------------|
--------------------|----------------------|-------------------|
--3------------5----|--6----8----5----6----|--2----------------|
--------------------|----------------------|-------------------|



-------------------|--------------------|----------------------|
-------------------|--------------------|----------------------|
--1----------------|--3------------5----|--6----8----5----6----|
-------------------|--------------------|----------------------|



-------------------|-------------------|--------------------|
-------------------|-------------------|--------------------|
--2----------------|--1----------------|--3------------5----|
-------------------|-------------------|--------------------|



----------------------|-------------------|----------------------|
----------------------|-------------------|----------------------|
--6----8----5----6----|--2----------------|--1------1-3-1--------|
----------------------|-------------------|----------------------|



--------------------|----------------------|-------------------|
--------------------|----------------------|-------------------|
--3------------5----|--6----8----5----6----|--2----------------|
--------------------|----------------------|-------------------|



-------------------|--------------------|----------------------|
-------------------|--------------------|----------------------|
--1----------------|--3------------5----|--6----8----5----6----|
-------------------|--------------------|----------------------|



-------------------|-------------------|--------------------|
-------------------|-------------------|--------------------|
--2----------------|--1----------------|--3------------5----|
-------------------|-------------------|--------------------|



----------------------|-------------------|-------------------|
----------------------|-------------------|-------------------|
--6----8----5----6----|--2----------------|--1----------------|
----------------------|-------------------|-------------------|



--------------------|----------------------|-------------------|
--------------------|----------------------|-------------------|
--3------------5----|--6----8----5----6----|--2----------------|
--------------------|----------------------|-------------------|



-------------------|--------------------|----------------------|
-------------------|--------------------|----------------------|
--1----------------|--3------------5----|--6----8----5----6----|
-------------------|--------------------|----------------------|



-------------------|-------------------|--------------------|
-------------------|-------------------|--------------------|
--2----------------|--1----------------|--3------------5----|
-------------------|-------------------|--------------------|



----------------------|-------------------|-------------------|
----------------------|-------------------|-------------------|
--6----8----5----6----|--2----------------|--1----------------|
----------------------|-------------------|-------------------|



--------------------|----------------------|-------------------|
--------------------|----------------------|-------------------|
--3------------5----|--6----8----5----6----|--2----------------|
--------------------|----------------------|-------------------|



-----------------|-------------------|
-----------------|-------------------|
--1--------------|--3----------------|
-----------------|-------------------|
Suggest correction
Creating personal tab
Creating personal tab
You can edit any tab online and save it as your Personal.

You can edit, replace or remove any tab part or add personal notes – all changes will be seen only by you.

Personal tabs can be accessed anytime from any device, even offline.
Learn more »
Give kudos to tab author, rate the tab!
1 2 3 4 5
comments
print report bad tab
guest
You may want to rate the tab now too:
select rating
Wanna post a correction for this tab? Suggest correction