Oops, an error
Loading. Please wait.

Scorched Earth Erotica Tab

version 1
version 1

Whole song

Interactive

5,366 views 3 this week
4 commentsread comments
1 2 3 4 5
x 3
add to favorites
launch autoscroll
font size
0
reset
how to read this tab
guitar tuner
×
Best way to learn
"Scorched Earth Erotica"
Autoscroll
slow
fast
+/-
esc
set tempo
stop
Cradle of Filth - Scorched Earth Erotica
Track 10 from the album "Bitter Suites to Succubi"
Tabbed by Ken Hoffmeyer (TheOldMansChild@aol.com)

Okay guys, this is just to let you all know that there IS somebody out here
workin on this song!  It's VERY VERY incomplete, but I intend to tab out
both guitar parts for the entire song.  I will finish this as soon as possible
and upload the completed version when I'm done.  Gian's parts (the rhythm guitar) 
will be VERY hard to tab because they are hard to hear and are usually very quiet (The Intro comes to mind).  
Also, some of Paul's parts may be more
complicated than what I have written based on watching the video, although
I personally don't hear anything else.  I'll have a friend listen and try
to figure it out.

Tuning:  Everything down 1 whole step


[Intro Part A]

 (0:00-0:14)
  Both guitars
e|------------|
B|------------|
G|------------|
D|------------|
A|-9/10p9~----|
E|------------|


[Intro Part B (0:14-0:26)]

  Paul (Gtr.1 continued from Part A)
e|----------------------------|
B|----------------------------|
G|----------------------------|
D|----------------------------|
A|-(9~)-----------------------|
E|----------------------------|

 Gian (Gtr.2)                         
e|---------------------------------------------|
B|---------------------------------------------|
G|-4-4-4-----------------------5-5-5-5---------|
D|-4-4-4--5-5-5--2-2-2--5-5-5-5--------5-5-5-5-|   Probably wrong
A|-2-2-2--5-5-5--2-2-2--5-5-5-5--------3-3-3-3-|
E|--------3-3-3--0-0-0--3-3-3-3----------------|

Riff A 2x (0:26-0:38) 
  Paul (Gtr.1)
e|--------------------------|
B|--------------------------|
G|--------------------------|
D|-4--2-4-5--4-2-7--5-4-5---|
A|--------------------------|
E|--------------------------|
 |
 |Gian (Gtr.2)                         
e|-----------------------|
B|-----------------------|
G|-----------------------|
D|--STILL TO COME--------|
A|-----------------------|
E|-----------------------|

 Riff B 2x (0:38-0:49)
  Paul (Gtr.1)
e|--------------------------|
B|--------------------------|
G|--------------------------|
D|--------------------------|
A|-4--2-4-5--4-2-7--5-4-5---|
E|--------------------------|
 |
 |Gian (Gtr.2)                         
e|-----------------------|
B|-----------------------|
G|-----------------------|
D|--STILL TO COME--------|
A|-----------------------|
E|-----------------------|

Riff A 2x (0:49-1:00)

 Riff C 2x (1:00-1:24)
  Paul (Gtr.1)
e|-----------------------|
B|-----------------------|
G|-----------------------|
D|-2-3-2-----------------|
A|-2-3-2--STILL TO COME--|
E|-0-1-0-----------------|
 |
 |Gian (Gtr.2)                         
e|-----------------------|
B|-----------------------|
G|-----------------------|
D|-2-3-2-----------------|
A|-2-3-2--STILL TO COME--|
E|-0-1-0-----------------|

Riff A 2x (1:24-1:35)

Riff B 2x (1:35-1:47)

Riff C 2x (1:47-2:10)

 Riff D 2x (2:10-2:22)
  Paul (Gtr.1)
e|-----------------------------|--------------------------|
B|-----------------------------|--------------------------|
G|-----------------------------|--------------------------|  Make sure each note
D|--------9------12-9---9------|-------8-----11-8---8-----|  is fingered, don't
A|------9---9---------9---9----|-----8---8--------8---8---|  bar fingers across
E|-7-10-------10------------10-|-6-9-------9------------9-|  multiple strings.
 |
 |Gian (Gtr.2)                                             
e|-----------------------------|--------------------------|
B|-----------------------------|--------------------------|
G|-----------------------------|--------------------------|
D|-9---------------------------|-8------------------------|
A|-9---------------------------|-8------------------------|
E|-7---------------------------|-6------------------------|

  Paul (Gtr.1)
e|------------------------------------|-----------------------------|
B|------------------------------------|-----------------------------|
G|---------10-------13-10----10-------|--------9------12-9---9------|
D|------10----10----------10----10----|------9---9---------9---9----|
A|-8-11----------11----------------11-|-7-10-------10------------10-|
E|------------------------------------|-----------------------------|
 |
 |Gian (Gtr.2)                         
e|------------------------------------|-----------------------------|
B|------------------------------------|-----------------------------|
G|-10---------------------------------|-9---------------------------|
D|-10---------------------------------|-9---------------------------|
A|-8----------------------------------|-7---------------------------|
E|------------------------------------|-----------------------------|

 Riff E 2x (2:22-2:34)
  Paul (Gtr.1)
e|-----------------------------------|-----------------------------------|
B|-----------------------------------|-----------------------------------|
G|---------11---------------11-------|---------10---------------10-------|
D|-9-11-12----12-11-9-11-12----12-11-|-8-10-11----11-10-8-10-11----11-10-|
A|-----------------------------------|-----------------------------------|
E|-----------------------------------|-----------------------------------|
 |
 |Gian (Gtr.2)
e|-----------------------------------|-----------------------------------|
B|-----------------------------------|-----------------------------------|
G|-----------------------------------|-----------------------------------|
D|-----------------------------------|-----------------------------------|
A|-STILL TO COME---------------------|-----------------------------------|
E|-----------------------------------|-----------------------------------|

  Paul (Gtr.1)
e|-------------------------------------|----------------------------------|
B|-------------------------------------|----------------------------------|
G|----------17----------------17-------|----------16-------------17-------|
D|-15-17-18----18-17-15-17-18----18-17-|-14-16-17----17-16-14-16----17-16-|
A|-------------------------------------|----------------------------------|
E|-------------------------------------|----------------------------------|
 |
 |Gian (Gtr. 2)
e|-------------------------------------|----------------------------------|
B|-------------------------------------|----------------------------------|
G|-------------------------------------|----------------------------------|
D|-------------------------------------|----------------------------------|
A|-STILL TO COME-----------------------|----------------------------------|
E|-------------------------------------|----------------------------------|

Riff D 1.75x (2:34-2:43)

 Pick Scrape (2:43-2:45)
  Paul (Gtr.1)
e|------|
B|------|
G|------|
D|-X\---|
A|-X\---|
E|------|
 |                    In the video, Paul is shown, open strings, pick goes from 
 |Gian (Gtr.2)        high frets to low, and hits mostly the D string
e|------|
B|------|
G|------|
D|--X\--|
A|--X\--|
E|------|

Okay, enough for now...the rest will come in time and I will fill in all
those damn holes in Gian's parts!  It's just too far in the background!



************************************

| p  Pull-off
| /  Slide up
| ~  Vibrato
| X  dead note

************************************
Suggest correction
Give kudos to tab author, rate the tab!
1 2 3 4 5
comments
print report bad tab
4 comments total. Showing first comments.
0 reply
jason voorhees 10 Jan 30, 2004 07:00 PM

for riff A tab it like this

C--6--46-7--64-9-7
G--4--24-5--42-7-5

0 reply
jason voorhees 10 Jan 30, 2004 07:00 PM

and also riff B (o:38-0:49)
it doesant change it stay the same as my Riff A just that it sounds differ. from when the drums come in but trust me it doesant change

0 reply
LALO 415 10 Jan 20, 2008 09:10 PM

are thosefrets even true i mean who has a 64th fret on their guitar?

guest
You may want to rate the tab now too:
select rating
Wanna post a correction for this tab? Suggest correction