Oops, an error
Loading. Please wait.

Summer Dying Fast Bass Tab

version 1
version 1

Whole song

Interactive

346 views 3 this week
no commentswrite comment
1 2 3 4 5
accurate
x 3
add to favorites
launch autoscroll
font size
0
reset
guitar tuner
Tab Pro tools
  • play this tab
  • loop segment
  • change instrument
  • show fretboard
  • metronome
Autoscroll
slow
fast
+/-
esc
set tempo
stop
Contributor
Artist: Cradle of Filth
Song: Summer dying fast
Album: Bitter suites to succubi
Tabbed By: Coty The Wretch
standard tunning

Intro (00:11) x4
C-----------------------------------------------------------------|
D-----------------------------------------------------------------|
A-----------------------------------------------------------------|
E-1-1-1-1-1-1-1-1-0-0-0-0-0-0-0-0-0-0-0-0-0-0-0-0-4-4-4-4-4-4-4-4-|

riff 1 (00:33) x9 (play consecutively twice each note, so, faster)
C-----------------|
D-----------------|
A-----------6-7-6-|
E-1-6-7-6-4-------|

Riff 2 (00:56) x4
C-----------------------------------------------------------------|
D-----------------------------------------------------------------|
A-1-1-1-1-1-1-1-1-1-1-1-1-1-1-1-1-0-0-0-0-0-0-0-0-0-0-0-0-0-0-0-0-|
E-----------------------------------------------------------------|

Riff 3 (01:25) x1
C-----------------------------------------------------|
D----0--2--0-2----0--2--0-2-------0----0-------0----0-|
A------------------------------3-----3------3-----3---|
E-1------------1------------0------------0------------|

Riff 4 (01:36) x2 (play twice each note)
C-----------------------------------------------------------------|
D-----------------------------------------------------------------|
A-6-6-6-6-6-6-6-6-5-5-5-5-5-5-5-5-4-4-4-4-4-4-4-4-5-5-5-5-5-5-5-5-|
E-----------------------------------------------------------------|

Riff 1 again (01:58) x9

Riff 4 again (02:21) x2

Riff 5 (02:47) x8
C--------------------------------|
D--------------------------------|
A--------------------------------|
E-0--0-3-3--2--1--0--0-3-3--2--4-|

riff 6 (03:16) x1 (these notes are played many times each,just follow the rythm)
C---------------------------------------------------------------------------|
D---------------------------------------------------------------------------|
A-------------------6---4---2---2--1--------------------6---4---2---2--1--6-|
E-2---4---7---7--6--------------------2---4---7---7--6----------------------|

before the piano melody...

just like riff 6 (04:01) x1
C------------------------------------------------------|
D------------------------------------------------------|
A-------------------6---4---2---2--1-------------------|
E-2---4---7---7--6--------------------2---4---7---7--6-|
(continues...)
C---------------------------------------------------------|
D---------------------------------------------------------|
A-6---4---2---2--1--------------------6---4---2---2--1--6-|
E-------------------2---4---7---7--6----------------------|
comments
We did not receive enough feedback on this tab! Please rate:
print report bad tab
1 2 3 4 5
I want to post or [tab]
guest
You may want to rate the tab now too:
select rating
Please do not post tabs as comments. Select "correction" instead!