Oops, an error
Loading. Please wait.

Temptation Bass Tab

version 1
version 1

Whole song

Interactive

4,016 views 3 this week
1 commentread comment
1 2 3 4 5
2 more votes to show rating
add to favorites
launch autoscroll
font size
0
reset
guitar tuner
Autoscroll
slow
fast
+/-
esc
set tempo
stop
Help us to improve Ultimate-Guitar.com Take our survey!
×
Temptation
Cradle of Filth
Drop C
Tabbed By: Synysterblack

-Intro-
F|-------------------------------|
C|-------------------------------|
G|-3~-66~-8~--3~-66~-8~-8-6-5\---|
C|-------------------------------|

-Chorus-
F|---------------------------|
C|-8-7-5-3-5-222-5-3-2-5-3---|
G|---------------------------|x7
C|---------------------------|

-Post-chorus-
F|---------------------------|
C|---------------------------|
G|-3~----3~----3~----3~------|
C|----6~----6~----6~----6\---|

-Verse-
F|--------------------------------------|
C|--------------------------------------|
G|-6-6-666-3-33-3333-1-1-111------------|x3
C|--------------------------6-66-6666---|

-Intro 2-
F|------------------------|
C|------------------------|
G|-3~-66~-8~--3~-66~-8~---|
C|------------------------|

-Chorus-
F|---------------------------|
C|-8-7-5-3-5-222-5-3-2-5-3---|
G|---------------------------|x3
C|---------------------------|

-Bridge-
F|--------------------------------|
C|--------------------------------|
G|-3~-----6~---3~-1~----6~66666---|
C|-----6~------------6~-----------|

F|--------------------------------------------------------------------|
C|----------------------------------------------------------------3---|
G|-3~----------3~-5~----8-6--6-5-3-----8-6--10-8-6--6~66-3-1-3-1-5----|
C|-----/6~-5~--------6~----10-------6~----10--------------------------|

-Chorus-
F|---------------------------|
C|-8-7-5-3-5-222-5-3-2-5-3---|
G|---------------------------|x16
C|---------------------------|
Suggest correction
Give kudos to tab author, rate the tab!
1 2 3 4 5
comments
print report bad tab
1 comment total.
0 reply
bassmasta.1515 10 Feb 04, 2011 01:28 PM

bridge is kind of off, but everything else sounds good.

guest
You may want to rate the tab now too:
select rating
Wanna post a correction for this tab? Suggest correction