Oops, an error
Loading. Please wait.

Temptation Tab

version 4
version 4

Whole song

Interactive

  • It's NOT duplicate ... the tab and the solo is better than all others version.
6,778 views 1 this week
no commentswrite comment
1 2 3 4 5
excellent!
x 4
add to favorites
launch autoscroll
font size
0
reset
how to read this tab
guitar tuner
Autoscroll
slow
fast
+/-
esc
set tempo
stop
Help us to improve Ultimate-Guitar.com Take our survey!
×
Contributor
Difficulty
Tuning
darcyhyde 100
intermediate
C G C F A D
Artist:Cradle Of Filth
Song:Temptation
Tuning:Drop C

Piano 25second
Intro:                  Verse/Chorus:
|------------|  |-----|---------------------------|
|------------|  |-----|---------------------------|
|------------|  |-----|---------------------------|
|-5/8/10-----|x2|-10\-|---------------------------|x7
|-3/6/8------|  |-8-\-|-8-7-5-3-5-222-5-3--22-5-3-|
|------------|  |-----|-8-7-5-3-5-222-5-3--22-5-3-|

Interlude:
|---------------------------|
|---------------------------|
|---------------------------|
|---------------------------|
|-8-7-5-3-0-2222222---------|
|-8-7-5-3-0-2222222---------|

play this and on the 2nd time play this
|-----------|   |---------------|
|-----------|   |---------------|repeat
|-----------|   |---------------|
|-----------|   |---------------|
|-10~---6~--|   |-10~---6666----|
|-10~---6~--|   |-10~---6666----|
                        PM

|-------|
|-------| pause after
|-------| for bass solo
|-------| then back to intro x2
|--6\---| to Verse/Chorus x3 to interlude
|--6\---| then to solo/Verse.

solo/Verse
|-------------------------------------|
|-------------------------------------|
|-------------------------------------|
|-------------------------------------|
|-10~---6~--13~-----10~--8~--6~---13~-|
|-10~---6~--13~-----10~--8~--6~---13~-|

|-------------------------|-----------|
|-------------------------|-----------|
|-------------------------|-----------|
|-------------------------|-----------|
|-10~---6~--5~---10~--8~--|-6~-13~-8~-|
|-10~---6~--5~---10~--8~--|-6~-13~-8~-|
                               x3^
Solo
|-----------2020------|   |-----------2323-----------|
|------2020------2020-|   |------2323------2323------|
|-1717----------------|x2 |-2020----------------2323-|
|---------------------|   |--------------------------|
|---------------------|   |--------------------------|
|---------------------|   |--------------------------|

|-----------2323-----------------2323------| |-----------2020------|
|------2323------2323-------2323------2323-| |------2020------2020-|
|-2020-----------------2222----------------| |-1717----------------|
|------------------------------------------| |---------------------|x2
|------------------------------------------| |---------------------|
|------------------------------------------| |---------------------|

|-----------2222-----------------2220--1616------1616-2020-|
|------1818------1818-------1818------------1616-----------|
|-1515-----------------1515--------------------------------|
|----------------------------------------------------------|
|----------------------------------------------------------|
|----------------------------------------------------------|

|-1616------1616----------------1818-2222-1818------1818-2222-20^-|
|------1616------1616------1818----------------1818---------------|
|---------------------1515----------------------------------------|
|-----------------------------------------------------------------|
|-----------------------------------------------------------------|
|-----------------------------------------------------------------|

verse/chorus
|---------------------------|
|---------------------------| Play this until
|---------------------------| the end of the song.
|---------------------------|
|-8-7-5-3-5-222-5-3--22-5-3-|
|-8-7-5-3-5-222-5-3--22-5-3-|


If you need any help with it just
send me a email at darcy_hyde2@hotmail.com
plz rate my tabs thank you.
comments
print report bad tab
I want to post or [tab]
guest
You may want to rate the tab now too:
select rating
Please do not post tabs as comments. Select "correction" instead!