Oops, an error
Loading. Please wait.

Thank God For The Suffering Tab

version 1
version 1

Whole song

Interactive

723 views 1 this week
no commentswrite comment
1 2 3 4 5
please rate
add to favorites
launch autoscroll
font size
0
reset
how to read this tab
guitar tuner
Autoscroll
slow
fast
+/-
esc
set tempo
stop
Help us to improve Ultimate-Guitar.com Take our survey!
×
Contributor
Difficulty
intermediate
Cradle of Filth - Thank God for the Suffering
I'd say that it is pretty damn close.
sorry bout the times and all but its pretty straight forward when to play what where so 
leave that crap to you.


Played with Orchestra
|-------------------|---------------------|-----------------|--------------------|
|-------------------|---------------------|-----------------|--------------------|
|-------------------|---------------------|-----------------|----------7-11------|
|-----9-10-----9-10-|-----9-10-------9-10-|-----9-7-----9-7-|-----9---------10-9-|
|---7--------7------|---7---------7-------|---8-------8-----|---9---10-----------|
|-5--------5--------|-5---------5---------|-8-------8-------|-7------------------|

Played with Chords
|-------------------|---------------------|-----------------|--------------------|
|-------------------|---------------------|-----------------|--------------------|
|-------------------|---------------------|-----------------|----------7-11------|
|-----9-10-----9-10-|-----9-10-------9-10-|-----9-7-----9-7-|-----9---------10-9-|
|---7--------7------|---7---------7-------|---8-------8-----|---9---10-----------|
|-5--------5--------|-5---------5---------|-8-------8-------|-7------------------|

|-------------------|---------------------|-----------------|--------------------|
|-------------------|---------------------|-----------------|--------------------|
|-------------------|---------------------|-----------------|--------------------|
|-12----------------|-12------------------|-15--------------|-14-----------------|
|-10----------------|-10------------------|-13--------------|-12-----------------|
|-10----------------|-10------------------|-13--------------|-12-----------------|

Chorus:

|----------------------------|
|----------------------------|
|----------------------------|
|----------------------------|
|-7-10-9-9--9----7-10-9-6--6-|
|-5-8--7-7--7----5-8--7-4--4-|

|----------------------------|
|----------------------------|
|----------------------------|
|----------------------------|
|----------------------------|
|-5"-8"-7"-7"----5"-8"-7"-4"-|

Played with Orchestra
|-------------------|---------------------|-----------------|--------------------|
|-------------------|---------------------|-----------------|--------------------|
|-------------------|---------------------|-----------------|----------7-11------|
|-----9-10-----9-10-|-----9-10-------9-10-|-----9-7-----9-7-|-----9---------10-9-|
|---7--------7------|---7---------7-------|---8-------8-----|---9---10-----------|
|-5--------5--------|-5---------5---------|-8-------8-------|-7------------------|

Played with Chords
|-------------------|---------------------|-----------------|--------------------|
|-------------------|---------------------|-----------------|--------------------|
|-------------------|---------------------|-----------------|----------7-11------|
|-----9-10-----9-10-|-----9-10-------9-10-|-----9-7-----9-7-|-----9---------10-9-|
|---7--------7------|---7---------7-------|---8-------8-----|---9---10-----------|
|-5--------5--------|-5---------5---------|-8-------8-------|-7------------------|

|-------------------|---------------------|-----------------|--------------------|
|-------------------|---------------------|-----------------|--------------------|
|-------------------|---------------------|-----------------|--------------------|
|-12----------------|-12------------------|-15--------------|-14-----------------|
|-10----------------|-10------------------|-13--------------|-12-----------------|
|-10----------------|-10------------------|-13--------------|-12-----------------|

Chorus:

|----------------------------|
|----------------------------|
|----------------------------|
|----------------------------|
|-7-10-9-9--9----7-10-9-6--6-|
|-5-8--7-7--7----5-8--7-4--4-|

|----------------------------|
|----------------------------|
|----------------------------|
|----------------------------|
|----------------------------|
|-5"-8"-7"-7"----5"-8"-7"-4"-|

|-----|-----|-----|----------|
|-----|-----|-----|----------|
|-----|-----|-----|----------|
|-----|-----|-----|----------|
|--5"-|--5"-|-----|----------|
|-----|-----|--6"-|--3"--4"--|

|-----|------------------|-----------------|
|-----|------------------|-----------------|
|-----|------------------|-----------------|
|-----|-----7"----8"-7"--|-----7"----8"-7"-|
|--7"-|--5"----5"--------|--4"----4"-------|
|-----|------------------|-----------------|

|-------------------|--------------------|-----------------------------|
|-------------------|--------------------|-----------------------------|
|--7----------------|--------------------|-----------------------------|
|--5----------3-----|--5--------7---7----|--5"----5"--4"--8"-----7"-5"-|
|-------------1-----|--3--------5---5----|-----------------------------|
|-------------------|--------------------|-----------------------------|
|                                                                      |
|----------------------------------------------------------------------|
|----------------------------------------------------------------------|
|----------------------------------------------------------------------|
|-------------------------7"----5"-4"-----5"-4"-----5"4"---------------|
|--------------------------------------5"--------5"--------------------|
|----------------------------------------------------------------------|

|----------------------------------------------------------------------|
|----------------------------------------------------------------------|
|----------------------------------------------------------------------|
|---5"-----5"-4"-8"-----7"-5"-7"-----5"-4"----5"-4"----5"-4"-----------|
|------------------------------------------5"-------5"-----------------|
|----------------------------------------------------------------------|
|                                                                      |
|----------------------------------------------------------------------|
|----------------------------------------------------------------------|
|----------------------------------------------------------------------|
|----5"-----5"-4"-8"-----7"-5"-7"-----5"-4"----5"-4"----5"-4"----------|
|-------------------------------------------5"-------5"----------------|
|----------------------------------------------------------------------|

|------------------------------|------------------------------|
|------------------------------|------------------------------|
|------------------------------|------------------------------|
|---9"-----10"-9"-10"---7"-10"-|--9"-----9-10---12-10---7-10--|
|---7"------8"-7"--8"---5"--8"-|--7"-----7--8---10--8---5--8--|
|------------------------------|------------------------------|
|                                                             |
|------------------------------|------------------------------|
|------------------------------|------------------------------|
|------------------------------|------------------------------|
|---9"-----10"-9"-10"---7"-10"-|---9"---------14"-----10"-----|
|---7"------8"-7"--8"---5"--8"-|---7"---------12"------8"-----|
|------------------------------|------------------------------|

|------------------------------|------------------------------|
|------------------------------|------------------------------|
|------------------------------|------------------------------|
|---9"-----10"-9"-10"---7"-10"-|--9"-----9-10---12-10---7-10--|
|---7"------8"-7"--8"---5"--8"-|--7"-----7--8---10--8---5--8--|
|------------------------------|------------------------------|
|                                                             |
|------------------------------|------------------------------|
|------------------------------|------------------------------|
|------------------------------|------------------------------|
|---9"-----10"-9"-10"---7"-10"-|---9"-------------------------|
|---7"------8"-7"--8"---5"--8"-|---7"---------7-----3---------|
|------------------------------|--------------5-----1---------|

|----------------------------|
|----------------------------|
|----------------------------|
|----------------------------|
|-7-10-9-9--9----7-10-9-6--6-|
|-5-8--7-7--7----5-8--7-4--4-|

|----------------------------|
|----------------------------|
|----------------------------|
|----------------------------|
|----------------------------|
|-5"-8"-7"-7"----5"-8"-7"-4"-|

|-----|-----|-----|----------|
|-----|-----|-----|----------|
|-----|-----|-----|----------|
|-----|-----|-----|----------|
|--5"-|--5"-|-----|----------|
|-----|-----|--6"-|--3"--4"--|

|-----|------------------|-----------------|--------------|
|-----|------------------|-----------------|--------------|
|-----|------------------|-----------------|--------------|
|-----|-----7"----8"-7"--|-----7"----8"-7"-|--------------|
|--7"-|--5"----5"--------|--4"----4"-------|---3"-----5"--|
|-----|------------------|-----------------|--------------|
comments
We did not receive enough feedback on this tab! Please rate:
print report bad tab
1 2 3 4 5
I want to post or [tab]
guest
You may want to rate the tab now too:
select rating
Please do not post tabs as comments. Select "correction" instead!