Oops, an error
Loading. Please wait.

The Black Goddess Rises Ii Bass Tab

version 1
version 1

Whole song

Interactive

269 views 1 this week
no commentswrite comment
1 2 3 4 5
excellent!
x 1
add to favorites
launch autoscroll
font size
0
reset
guitar tuner
Tab Pro tools
  • play this tab
  • loop segment
  • change instrument
  • show fretboard
  • metronome
Autoscroll
slow
fast
+/-
esc
set tempo
stop
Contributor
Difficulty
Tuning
novice
D G C F A D
================================================================================
                          C R A D L E   O F   F I L T H

                                       -

                T H E   B L A C K   G O D D E S S   R I S E S  I I
================================================================================


                            BITTER SUITES TO SUCCUBI
                           (c) Spitfire Records (2001)
                          http://www.cradleoffilth.com/


                             Tune down one full step
                                    A D G C F


                                 Tempo = 126 BPM
                              Time Signature = 4/4


                          -----------------------------
                                 Transcribed by

                                 PADDY MCMULLAN
                           pmtabs (@t) gmail [dot] com

                                   Version 1.0
                                 5th  March 2010
                             -----------------------

                             Tablature Symbols Used:


 p         -  Pull-Off
 h         -  Hammer-On
 (/)       -  Legato Slide (Blank space indicates length of slide)
 \         -  Slide Down to/Down From (Blank space indicates length of slide)
 /         -  Slide Up To/Up From (Blank space indicates length of slide)
 ( )       -  Ghost Note/Tied Note/Implied Note
 REST      -  Rest and sustain rest for duration of blank space
 |_3_|     -  Triplet Notes
 |___[1]   -  Ending 1/2/3 etc.



================================================================================
Section 1: Play 4 times
================================================================================


||---------------------|---------------------| |
||---------------------|---------------------|*|
||---------------------|-----------3----1----| |
||--0------------1--3--|--1------------------|*|
||---------------------|---------------------| |


================================================================================
Section 2: Play 4 times
================================================================================

                         |___________________[1,2,3]
||-----------------------|-----------------------| |
||-----------------2--3--|--1------1----1--1--1--|*|
||--0------0--0----------|-----------------------| |
||-----------------------|-----------------------|*|
||-----------------------|-----------------------| |


|__________[4]
|-----------||
|--1--------||
|-----------||
|-----------||
|-----------||



================================================================================
Section 3: Play 8 times [ Tempo = 106 BPM ]
================================================================================


| |-----------------------------|---------------------------| |
|3|-----------------------------|---------------------------|*|
|/|-----------------------------|---------------------------| |
|4|-(1/3)-0-0-0-0-(1/3)-0-0-0-0-|-(1/3)-0-0-0-0-3-4-0-3-4-0-|*|
| |-----------------------------|---------------------------| |


| |-----------||
|4|-----------||
|/|-----------||
|4|--0--------||
| |-----------||



================================================================================
Section 4: Play 4 times [ Tempo = 100 BPM ]
================================================================================


||------------------------------------------|
||------------------------------------------|
||--------------------------------------3-4-|
||--1--0-0-0-0-1--0-0-0-0-1--0-0-0-0-1------|
||------------------------------------------|


|------------------------------------------||
|------------------------------------------||
|------------------------------------------|| x 1
|--1--0-0-0-0-1--0-0-3-4-2-3-1-2-(3p1h3p0)-||
|------------------------------------------||


||--------------------------------------------|
||--------------------------------------------|
||--------------------------------------------|
||--1--0--0--0-0-0--0--0--0-0-0--0--0--4--3-4-|
||--------------------------------------------|


|----------------------------------------------| |
|----------------------------------------------|*|
|----------------------------------------------| | x 4
|--1--0--0--0-0-0--0--0--3-4-2-3-1-2-(3p1h3p0)-|*|
|----------------------------------------------| |



================================================================================
Section 5: Play twice
================================================================================


||------------------------------------------------------------------|
||------------------------------------------------------------------|
||--7-7-7-7-7-7-7-7-7-7-7-7-7-7-7-7---------------------------------|
||----------------------------------7-7-7-7-7-7-7-7-6-6-6-6-6-6-6-6-|
||------------------------------------------------------------------|


|------------------------------------------------------------------|
|------------------------------------------------------------------|
|------------------------------------------------------------------|
|--0-0-0-0-0-0-0-0-0-0-0-0-0-0-0-0-2p0-0-0-3p0-0-0-4p0-0-0-5p0-0-0-|
|------------------------------------------------------------------|


|------------------------------------------------------------------|
|------------------------------------------------------------------|
|--7-7-7-7-7-7-7-7-7-7-7-7-7-7-7-7---------------------------------|
|----------------------------------8-8-8-8-8-8-8-8-7-7-7-7-7-7-7-7-|
|------------------------------------------------------------------|


|-------------------------------------------------------------------| |
|-------------------------------------------------------------------|*|
|-------------------------------------------------------------------| |
|--6-6-6-6-6-6-6-6-6-6-6-6-6-6-6-6-7p6-6-6-8p6-6-6-9p6-6-6-10p6-6-6-|*|
|-------------------------------------------------------------------| |



================================================================================
Repeat Section 4
================================================================================

================================================================================
Repeat Section 5, ending on the following note:
================================================================================


||-----------||
||-----------||
||-----------||
||--0--------||
||-----------||



Hold for 4 bars, allowing the notes to fade out while the interlude begins



================================================================================
Rest for 4 bars [ Tempo = 80 BPM ]
================================================================================

================================================================================
Interlude - Part I: Play once
================================================================================


| |---------------|------------------|---------------|-----------------|
|3|---------------|------------------|---------------|-----------------|
|/|---------------|------------------|---------------|-----------------|
|4|--0------------|--(0)----0--2--0--|---------------|--5------5----7--|
| |---------------|------------------|--3------------|-----------------|


|----------------|------------------|---------------|----------------|
|----------------|------------------|---------------|----------------|
|----------------|------------------|---------------|----------------|
|--8------8------|--8--7----8----7--|--0------------|--(0)----0------|
|----------------|------------------|---------------|----------------|


|---------------|------------------|---------------|------------------|
|---------------|------------------|---------------|------------------|
|---------------|---------7--9--7--|--5------------|------------------|
|--0------------|--(0)-------------|---------------|--5------5--5--7--|
|---------------|------------------|---------------|------------------|


|-----------------|------------------|---------------|-----------------|
|-----------------|------------------|---------------|-----------------|
|-----------------|------------------|---------------|-----------------|
|--8------8----8--|--8--7----8----7--|--0------------|--(0)------0--2--|
|-----------------|------------------|---------------|-----------------|

|-----let ring------|
|-------------------|--------------------|--------------------|
|--------5----------|--------------------|--------------------|
|-----5-------------|------7-------7-----|------9-------9-----|
|--3--------3----3--|--5-----5--5-----5--|--7-----7--7-----7--|
|-------------------|--------------------|--------------------|

                     |----let ring-------|
|--------------------|-------------------|--------------------|
|--------------------|--------5----------|--------------------|
|------9-------------|-----5-------------|------7-------7-----|
|--7-----7--7--0--2--|--3--------3----3--|--5-----5--5-----5--|
|--------------------|-------------------|--------------------|

                                          |----let ring-------|
|--------------------|--------------------|-------------------|
|--------------------|--------------------|--------5----------|
|------9-------9-----|------9-------------|-----5-------------|
|--7-----7--7-----7--|--7-----7--7--0--2--|--3--------3----3--|
|--------------------|--------------------|-------------------|


|--------------------|--------------------|--------------------|
|--------------------|--------------------|--------------------|
|------7-------7-----|------9-------9-----|------9-------------|
|--5-----5--5-----5--|--7-----7--7-----7--|--7-----7--7--0--2--|
|--------------------|--------------------|--------------------|

|-------let ring----------------let ring--------------let ring--------|
|-----------------------|----------------------|----------------------|
|---------------5---5 / |--7------7---------7--|---------9---------9--|
|-----5------5----------|-----7---------7------|-----9---------9------|
|--3----3-3-------3   / |--5----5----5----5----|--7----7----7----7----|
|-----------------------|----------------------|----------------------|


|--------------------||
|--------------------||
|------9-------9-----||
|--7-----7--7-----7--||
|--------------------||



================================================================================
Rest for 8 bars
================================================================================

================================================================================
Interlude - Part II: Play once
================================================================================


||-----------------|------------------|------------------|
||-----------------|------------------|------------------|
||-----------------|------------------|------------------|
||--0-----------0--|--0------0--2--0--|------------------|
||-----------------|------------------|--3----3--3----3--|


|------------------|----------------|------------------|---------------|
|------------------|----------------|------------------|---------------|
|------------------|----------------|------------------|---------------|
|--5------5--5--7--|--8------8------|--8--7----8----7--|--0------------|
|------------------|----------------|------------------|---------------|


|-----------------||
|-----------------||
|-----------------||
|--0--------0--2--||
|-----------------||



================================================================================
Interlude - Part III: Play 3 times
================================================================================


||--------------------|--------------------|--------------------|
||--------------------|--------------------|--------------------|
||--------------------|--------------------|-----9--------9-----|
||--3----3--3---3-3 / |--5----5--5---5-5 / |--7-----7--7-----7--|
||--------------------|--------------------|--------------------|


|--------------------| |
|--------------------|*|
|-----9--------------| | x 3
|--7-----7--7--0--2--|*|
|--------------------| |


|--------------------|-------------------| |-------------------||
|--------------------|-------------------|4|-------------------||
|--------------------|-------------------|/|-------------------||
|--3----3--3---3-3 / |--5----5--5---5-5--|4|--0----------------||
|--------------------|-------------------| |-------------------||



================================================================================
Interlude - Part IV: Play 8 times [ Tempo = 126 BPM ]
================================================================================


* Let notes ring *


||------------------------------------------------------------------| |
||--2-------2-------2-------2-------2-------2-------2-------2-------|*|
||----2---2---2---2---2---2---2---2---2---2---2---2---2---2---2---2-| |
||------0-------0-------0-------0-------0-------0-------0-------0---|*|
||------------------------------------------------------------------| |



================================================================================
Repeat Section 4, extending the riff by repeating the last 4 bars
================================================================================

================================================================================
Repeat Section 5, including the final E note
================================================================================

================================================================================
Repeat Section 1
================================================================================

================================================================================
Repeat Section 2, playing the following instead of the last repeat
================================================================================


|-----------------------|-------------------|-------------------||
|-----------------2--3--|-------------------|-------------------||
|--0------0--0----------|-------------------|-------------------||
|-----------------------|--0----------------|--(0)--------------||
|-----------------------|-------------------|-------------------||



================================================================================
Repeat bars 2 and 3 of Section 3 with the following variation on the last repeat
================================================================================


|-----------------------------|---------------------------|
|-----------------------------|---------------------------|
|-----------------------------|---------------------------|
|-(1/3)-0-0-0-0-(1/3)-0-0-0-0-|-(1/3)-0-0-0-0-3-4-2-3-1-2-|
|-----------------------------|---------------------------|


|--------R-      -||
|--------E-      -||
|--------S-      -||
|--1--0--T-      -||
|-----------------||



================================================================================
End
================================================================================


Tab summary:        Section 1 x 4
                    Section 2 x 4
                    Section 3 x 8
                    Section 4 x 4
                    Section 5 x 2
                    Section 4 x 4
                    Section 5 x 2
                    Interlude:
                              Part I x 1
                              Part II x 1
                              Part III x 3
                    Section 4 x 4
                    Section 5 x 2
                    Section 1 x 4
                    Section 2 x 4
                    Section 3 x 4

                    END
comments
We did not receive enough feedback on this tab! Please rate:
print report bad tab
1 2 3 4 5
I want to post or [tab]
guest
You may want to rate the tab now too:
select rating
Please do not post tabs as comments. Select "correction" instead!