Oops, an error
Loading. Please wait.

The Black Goddess Rises Ii Tab

version 1
version 1

Whole song

Interactive

790 views 1 this week
no commentswrite comment
1 2 3 4 5
please rate
add to favorites
launch autoscroll
font size
0
reset
how to read this tab
guitar tuner
Autoscroll
slow
fast
+/-
esc
set tempo
stop
Help us to improve Ultimate-Guitar.com Take our survey!
×
Author
Difficulty
Tuning
intermediate
D G C F A D
================================================================================
                          C R A D L E   O F   F I L T H

                                       -

                T H E   B L A C K   G O D D E S S   R I S E S  I I
================================================================================


                            BITTER SUITES TO SUCCUBI
                           (c) Spitfire Records (2001)
                          http://www.cradleoffilth.com/


                                Tune Down 1 Step
                                  D G C  F A D


                                 Tempo = 126 BPM
                              Time Signature = 4/4


                          -----------------------------
                                 Transcribed by

                                 PADDY MCMULLAN
                           pmtabs (@t) gmail [dot] com

                                   Version 1.0
                                 4th  March 2010
                             -----------------------

                             Tablature Symbols Used:


 P.M...    -  Palm Mute
 p         -  Pull-Off
 h         -  Hammer-On
 (/)       -  Legato Slide (Blank space indicates length of slide)
 \         -  Slide Down to/Down From (Blank space indicates length of slide)
 /         -  Slide Up To/Up From (Blank space indicates length of slide)
 ( )       -  Ghost Note/Tied Note/Implied Note
 REST      -  Rest and sustain rest for duration of blank space
 |_3_|     -  Triplet Notes
 |___[1]   -  Ending 1/2/3 etc.
 1t2       -  Trill notes, and sustain trill for duration of blank space



================================================================================
Section 1: Guitars 1 & 2 with Heavy Distortion (Play 4 times)
================================================================================


||---------------------|-------------------------||
||---------------------|-------------------------||
||---------------------|-------------------------||
||---------------------|-------------------------||
||--2------------3--5--|--3------(1/3)~~---1~~---||
||--0------------1--3--|--1----------------------||
                 ....


================================================================================
Section 2: Guitars 1 & 2 (Play once)
================================================================================


||---------------------|----------------------|---------------------|
||---------------------|----------------------|---------------------|
||---------------------|----------------------|---------------------|
||--2------------2--3--|--1~~-------1~~-------|--2------------2--3--|
||--0------------------|----------------------|--0------------------|
||---------------------|----------------------|---------------------|


|--------------------|---------------------|----------------------|
|--------------------|---------------------|----------------------|
|--------------------|---------------------|----------------------|
|--------------------|--2------------2--3--|--1t2               --|
|--1~~---------------|--0------------------|----------------------|
|--------------------|---------------------|----------------------|


|---------------------|--------------------||
|---------------------|--------------------||
|---------------------|--------------------||
|--2------------2--3--|--------------------||
|--0------------------|--1~~---------------||
|---------------------|--------------------||



Only Guitar 1 plays the second note in bar 2; Guitar 2 holds the first note
throughout



================================================================================
Section 3: Guitars 1 & 2 (Play once through) [ Tempo = 106 BPM ]
================================================================================


| |--------------------------|--------------------||
| |--------R-   -------R-   -|--------R-         -||
|3|--------E-   -------E-   -|--------E-         -||
|/|--------S-   -------S-   -|--------S-         -|| x 2
|4|--2--2--T-   -2--2--T-   -|--2--2--T-         -||
| |--0--0--------0--0--------|--0--0--------------||

|------------------------------------|------------------------------------||
|------------------------------------|------------------------------------||
|------------------------------------|------------------------------------||
|------------------------------------|------------------------------------|| x 4
|-(3/5)-2--2--2--2--(3/5)-2--2--2--2-|-(3/5)-2--2--2--2-------------------||
|-(1/3)-0--0--0--0--(1/3)-0--0--0--0-|-(1/3)-0--0--0--0--3--4--0--3--4--0-||
        ..........        ..........         ............................

| |---------------------||
| |-----R-             -||
|4|-----E-             -||
|/|-----S-             -||
|4|-----T-             -||
| |--0------------------||



================================================================================
Section 4: Guitars 1 & 2  (Play once through) [ Tempo = 100 BPM ]
================================================================================


||--------------------------------------------------------|
||--------------------------------------------------------|
||--------------------------------------------------------|
||--3--------------3--------------3--------------3--------|
||--3--2--2--2--2--3--2--2--2--2--3--2--2--2--2--3--3--4--|
||--1--0--0--0--0--1--0--0--0--0--1--0--0--0--0--1--------|
       ..........     ..........     ..........     .....

|-------------------------------------------------------||
|-------------------------------------------------------||
|-------------------------------------------------------||
|--3--------------3-------------------------------------|| x 1
|--3--2--2--2--2--3--2--2--5--6--4--5--3--4-------------||
|--1--0--0--0--0--1--0--0--3--4--2--3--1--2--(3p1h3p0)--||
      ..........     ......................

||-----------------------------------------------|
||-----------------------------------------------|
||-----------------------------------------------|
||--6----------------------------------9---8--9--|
||--8----------------------------------11--10-11-|
||-----0--0--0-0-0--0--0--0-0-0--0--0------------|
      ..............................

|-----------------------------------------------------||
|-----------------------------------------------------||
|-----------------------------------------------------||
|--6--------------------------------------------------|| x 2
|--8--------------------------------------------------||
|-----0--0--0-0-0--0--0--3--4--2--3--1--2--(3p1h3p0)--||
      ...................................

||------------------------------------------|
||------------------------------------------|
||------------------------------------------|
||------------------------------------------|
||--8---------8---------8---------11--10-11-|
||-----0-0-0-----0-0-0-----0-0-0------------|
       .....     .....     .....

|---------------------------------------------------||
|---------------------------------------------------||
|---------------------------------------------------||
|---------------------------------------------------|| x 2
|--8---------8--------------------------------------||
|-----0-0-0-----0-0-0--3--4--2--3--1--2--(3p1h3p0)--||
      .....     .......................



During bars 3 and 4 Guitar one only plays the notes on the E and A strings;
Guitar 2 plays the riff as written.



================================================================================
Section 5.1: Guitar 1 (Play twice)
================================================================================


||-----------------------------------------------------------------|
||-----------------------------------------------------------------|
||-----------------------------------------------------------------|
||-----------------------------------------------------------------|
||-7-7-7-7-7-7-7-7-7-7-7-7-7-7-7-7---------------------------------|
||---------------------------------7-7-7-7-7-7-7-7-6-6-6-6-6-6-6-6-|
   ...............................................................

|-----------------------------------------------------------------|
|-----------------------------------------------------------------|
|-----------------------------------------------------------------|
|-----------------------------------------------------------------|
|-----------------------------------------------------------------|
|-0-0-0-0-0-0-0-0-0-0-0-0-0-0-0-0-2p0-0-0-3p0-0-0-4p0-0-0-5p0-0-0-|
  ...........................

|-----------------------------------------------------------------|
|-----------------------------------------------------------------|
|-----------------------------------------------------------------|
|-----------------------------------------------------------------|
|-7-7-7-7-7-7-7-7-7-7-7-7-7-7-7-7---------------------------------|
|---------------------------------8-8-8-8-8-8-8-8-7-7-7-7-7-7-7-7-|
  ...............................................................

|------------------------------------------------------------------| |
|------------------------------------------------------------------| |
|------------------------------------------------------------------|*|
|------------------------------------------------------------------| |
|------------------------------------------------------------------|*|
|-6-6-6-6-6-6-6-6-6-6-6-6-6-6-6-6-7p6-6-6-8p6-6-6-9p6-6-6-10p6-6-6-| |
  ...........................



================================================================================
Section 5.2: Guitar 2 (Play once)
================================================================================


||-----------------------------------------------------------------|
||-----------------------------------------------------------------|
||-----------------------------------------------------------------|
||-----------------------------------------------------------------|
||-7-7-7-7-7-7-7-7-7-7-7-7-7-7-7-7---------------------------------|
||---------------------------------7-7-7-7-7-7-7-7-6-6-6-6-6-6-6-6-|


|-----------------------------------------------------------------|
|-----------------------------------------------------------------|
|-----------------------------------------------------------------|
|-----------------------------------------------------------------|
|-----------------------------------------------------------------|
|-0-0-0-0-0-0-0-0-0-0-0-0-0-0-0-0-2p0-0-0-3p0-0-0-4p0-0-0-5p0-0-0-|


|-----------------------------------------------------------------|
|-----------------------------------------------------------------|
|-----------------------------------------------------------------|
|-----------------------------------------------------------------|
|-7-7-7-7-7-7-7-7-7-7-7-7-7-7-7-7---------------------------------|
|---------------------------------8-8-8-8-8-8-8-8-7-7-7-7-7-7-7-7-|


|------------------------------------------------------------------|
|------------------------------------------------------------------|
|------------------------------------------------------------------|
|------------------------------------------------------------------|
|------------------------------------------------------------------|
|-6-6-6-6-6-6-6-6-6-6-6-6-6-6-6-6-7p6-6-6-8p6-6-6-9p6-6-6-10p6-6-6-|


|-----------------------------------------------------------------|
|-----------------------------------------------------------------|
|-9-9-9-9-9-9-9-9-9-9-9-9-9-9-9-9---------------------------------|
|---------------------------------9-9-9-9-9-9-9-9-8-8-8-8-8-8-8-8-|
|-----------------------------------------------------------------|
|-----------------------------------------------------------------|


|--------------------------------------------------------------------|
|--------------------------------------------------------------------|
|--------------------------------------------------------------------|
|--------------------------------------------------------------------|
|-7-7-7-7-7-7-7-7-7-7-7-7-7-7-7-7-9p7-7-7-10p7-7-7-11p7-7-7-12p7-7-7-|
|--------------------------------------------------------------------|


|-------------------------------------------------------------------------|
|-------------------------------------------------------------------------|
|-9-9-9-9-9-9-9-9-9-9-9-9-9-9-9-9-----------------------------------------|
|---------------------------------10-10-10-10-10-10-10-10-9-9-9-9-9-9-9-9-|
|-------------------------------------------------------------------------|
|-------------------------------------------------------------------------|


|--------------------------------------------------------------------||
|--------------------------------------------------------------------||
|--------------------------------------------------------------------||
|-8-8-8-8-8-8-8-8-8-8-8-8-8-8-8-8-9p8-8-8-10p8-8-8-11p8-8-8-12p8-8-8-||
|--------------------------------------------------------------------||
|--------------------------------------------------------------------||



================================================================================
Guitars 1 & 2 repeat Section 4
================================================================================

================================================================================
Guitars 1 & 2 repeat Section 5, ending on the following chord:
================================================================================


||---------|
||---------|
||---------|
||---------|
||--2------|
||--0------|



Hold for 4 bars, allowing the notes to fade out while the interlude begins



================================================================================
Rest for 36 bars [ Tempo = 80 BPM ]
================================================================================

================================================================================
Interlude - Part I: Guitars 1 & 2 (Play twice)
================================================================================


| |---------------|---------------------|--------------------|
| |---------------|---------------------|--------------------|
|3|---------------|---------------------|--------------------|
|/|---------------|---------------------|--------------------|
|4|--7------------|-(7)-----7--(7/9\7)--|--5--------(5/7\5)--|
| |---------------|---------------------|--------------------|


|-----------------|---------------|--------------------|---------------|
|-----------------|---------------|--------------------|---------------|
|-----------------|---------------|--------------------|---------------|
|-----------------|---------------|--------------------|---------------|
|--0--------0--2--|--3------------|(0/3)--2----3----2--|--7------------|
|-----------------|---------------|--------------------|---------------|

|_______________[1]
|---------------| |
|---------------| |
|---------------|*|
|---------------| |
|--(7)----------|*|
|---------------| |

|________________[2]
|-----------------||
|-----------------||
|-----------------||
|-----------------||
|--(7)------2--4--||
|-----------0--2--||
            ....



================================================================================
Interlude - Part II: Guitar 1 & 2 (Play 3 times)
================================================================================


| |-----------------|-----------------|------------------|
| |-----------------|-----------------|------------------|
|3|-----------------|-----------------|------------------|
|/|-----------------|-----------------|------------------|
|4|--5------5----5--|--7------7----7--|--9----9--9----9--|
| |--3------3----3--|--5------5----5--|--7----7--7----7--|
                                             ...     ...

|-------------------| |
|-------------------| |
|-------------------|*|
|-------------------| | x 3
|--9----9--9--2--4--|*|
|--7----7--7--0--2--| |
       ...    ....

| |-------------------|---------------------||
| |-------------------|-----R-             -||
|4|-------------------|-----E-             -||
|/|-------------------|-----S-             -||
|4|--2----------------|--2--T-             -||
| |--0----------------|--0------------------||



================================================================================
Interlude - Part III: Guitars 1 & 2 (Repeats outlined below)
================================================================================


Guitar 2 simply repeats the following bar throughout this section:


||----------------------------------| |
||----R---R---R---R---R---R---R-----| |
||----E---E---E---E---E---E---E-----|*|
||----S---S---S---S---S---S---S-----|*| x 7
||--2-T-2-T-2-T-2-T-2-T-2-T-2-T-2---| |
||--0---0---0---0---0---0---0---0---| |



Guitar 1 rests for 1 bar before joining in with the following:


||--------------------| |
||--------------------| |
||--------------------|*|
||--9--------7--------|*| x 6
||--7--------5--------| |
||--7--------5--------| |



================================================================================
Guitars 1 & 2 repeat Section 4, extending the riff by repeating the last 4 bars
================================================================================

================================================================================
Guitars 1 & 2 repeat Section 5, including the final E chord
================================================================================

================================================================================
Rest for 4 bars
================================================================================

================================================================================
Guitars 1 & 2 repeat Section 1
================================================================================

================================================================================
Guitars 1 & 2 repeat Section 2, playing the following instead of the last repeat
================================================================================


|---------------------|-------------------|-------------------||
|---------------------|-------------------|-------------------||
|---------------------|-------------------|-------------------||
|--2------------2--3--|-------------------|-------------------||
|--0------------------|--2----------------|--(2)--------------||
|---------------------|--0----------------|--(0)--------------||



================================================================================
Outro: Guitars 1 & 2 repeat bars 2 and 3 of Section 3 with the following
variation on the last repeat:
================================================================================


| |-------------------------------------|-----------------||
| |-------------------------------------|--------R-      -||
|3|-------------------------------------|--------E-      -||
|/|-------------------------------------|--------S-      -||
|4|-(3/5)-2--2--2--2--------------------|--3--2--T-      -||
| |-(1/3)-0--0--0--0--3--4--2--3--1--2--|--1--0-----------||
        ............................



================================================================================
End
================================================================================


Tab summary:        Section 1 x 4
                    Section 2 x 1
                    Section 3 x 1
                    Section 4 x 1
                    Section 5 x 2
                    Section 4 x 1
                    Section 5 x 2
                    Interlude:
                              Part I x 2
                              Part II x 3
                              Part III x 6
                    Section 4 x 1
                    Section 5 x 2
                    Section 1 x 4
                    Section 2 x 1
                    Section 3 x 4

                    END
Suggest correction
Give kudos to tab author, rate the tab!
1 2 3 4 5
comments
print report bad tab
guest
You may want to rate the tab now too:
select rating
Wanna post a correction for this tab? Suggest correction