Oops, an error
Loading. Please wait.

The Black Goddess Rises Tab

version 2
version 2

Whole song

Interactive

339 views 1 this week
no commentswrite comment
1 2 3 4 5
please rate
add to favorites
launch autoscroll
font size
0
reset
how to read this tab
guitar tuner
Autoscroll
slow
fast
+/-
esc
set tempo
stop
Help us to improve Ultimate-Guitar.com Take our survey!
×
Author
BAND:CRADLE OF FILTH
ALBUM:BITTER SUITES TO SUCCUBI
SONG:THE BLACK GODDESS RISES 2
TUNING:DROP D (EBGDAD)

THIS SONG IS IS WICKED,ITS 100%CORRECT AND WILL TAKE SOME TIME TIME TO LEARN WHERE ALL 
RIFFS GO,BUT ONCE YOU LEARN IT ITS KOOL.PLZ RATE THIS SONG.

* = PALM MUTE
" = TREM PICK (PICK AS FAST AS U CAN)
/ = SLIDE
~ = RING OUT
tr = TRILL NOTE (HAMMER ON AND OFF THE TWO NOTES FAST)
p = PULL OFF
h = HAMMER ON

   INTRO RIFF  X4
E-----------------------|
B-----------------------|
G-----------------------|
D-----------------------|
A--0~-1-3-1~------------|
D--0~-1-3-1~--/8-6~-----|
      * *

  VERSE RIFF
E------------------------------------------------------|
B------------------------------------------------------|
G------------------------------------------------------|
D------------------------------------------------------|
A--5--5-6-4~---5--5-6------5--5-6-4tr5----5--5-6-------|
D--5-----------5------6~---5--------------5------6~----|


  RIFF A1 X2
E--------------|
B--------------|
G--------------|
D--------------|
A--00-00-00----|
D--00-00-00----|

 RIFF A2 X6 (5TH,6TH TIME NO PM)

E-------------------------------------------|
B-------------------------------------------|
G-------------------------------------------|
D-------------------------------------------|
A-1/4------1/4------1/4---------------------|
D-1/4-0000-1/4-0000-1/4-0000-3-4-1--1-3-1---|
      ****     ****     **** * * *  * * *


 RIFF B1

E-----------------------------------------------------|
B-----------------------------------------------------|
G-----------------------------------------------------|
D--8-----8----8------------8-----8--------------------|
A--6-----6----6------------6-----6--3-4-1--3-0-1------|
D----0000-0000-0000-8-9------0000---3-4-1--3-0-1-1p0--|
     **** **** **** * *      ****   * * *  * * *


 RIFF B2

E--------------------------------------------------------------|
B--------------------------------------------------------------|
G--------------------------------------------------------------|
D--------------------------------------------------------------|
A--6\------------------9-8-9-6\--------------------------------|
D-----00-000-00-000-00-----------00-000-00-3-4--1-3--0-1--1p0--|
      ** *** ** *** **           ** *** ** * *  * *  * *

  RIFF B3
E----------------------------------------------------------|
B----------------------------------------------------------|
G----------------------------------------------------------|
D----------------------------------------------------------|
A--6-----6----6-----9-8-9--6----6--------------------------|
D----0000-0000-0000---------0000-0000-3-4--1-3--0-1--1p0---|
     **** **** ****         **** **** * *  * *  * *


 RIFF B4 X2

E-------------------------------|
B-------------------------------|
G-------------------------------|
D-------------------------------|
A--5"-------------5"------------|
D-----7"-6"-0"------8"-7"-6"----|


THEN..
PLAY RIFF B2 X2
PLAY RIFF B3 X2
PLAY RIFF B4 X2

D----------|
A-0~-------|
D-0~-------|


INTERLUDE WITH PIANO,CELLO,BASS AND DRUMS

  RIFF C1 X2
E-----------------------------------------------------|
B-----------------------------------------------------|
G-----------------------------------------------------|
D-----------------------------------------------------|
A--5~-5-7-5-3~--3-3h5p3-1----------------------5~-----|
D-------------------------5~--5-7-8~-8-7~-7-7~--------|


 RIFF C2 X3

E--------------------------------|
B--------------------------------|
G--------------------------------|
D--------------------------------|
A--0-2-3~--5~--7-77-7-7-7-7-7----|
D--0-2-3~--5~--7-77-7-7-7-7-7----|
   * *           **   *   *

 PLAY 4TH TIME
E-----------------------|
B-----------------------|
G-----------------------|
D-----------------------|
A--0-2-3~-5~-0~-----0---|
D--0-2-3~-5~-0~-----0---|


 RIFF C3 GTR 1

D-------------------|
A--0-0-0-0-0-0-0-0--|
D--0-0-0-0-0-0-0-0--|


RIFF C3 GTR 2

D---------------------------------------------------------------|
A-5~-8-7-3~----7~----5~-8-7-3~-----3~----5~-8-7-10-12~-8~-10~---|
D------------7~-----------------7~------------------------------|


D--------------------------------------------|
A--1------1------1------1-1h2--1------1------|
D--1-0000-1-0000-1-0000-1------1-0000-1-00---|
     ****   ****   ****          ****


THEN....
PLAY RIFF B2 X2
PLAY RIFF B3 X2
PLAY RIFF B2 X2
PLAY RIFF B4 X2


D----------|
A--0~~~----|
D--0~~~----|


THEN...
PLAY INTRO RIFF X4
PLAY VERSE RIFF X2
PLAY RIFF A2 X4


  THATS ALL FOR THIS SONG THE WAY I SET THE RIFFS OUT IS IN THE SAME ORDER AS THE SONG 
TAKES A WHILE TO GET USE TO BUT ITS GOOD WHEN U CAN PLAY IT.PLZ RATE THIS TAB.

   TABBED BY:TAB_MAN84
Suggest correction
What's this?
You can suggest a correction to this tab. Community and Mods will review your correction and vote to approve or reject it.
comments
We did not receive enough feedback on this tab! Please rate:
print report bad tab
1 2 3 4 5
guest
You may want to rate the tab now too:
select rating
Please do not post tabs as comments. Select "correction" instead!