Oops, an error
Loading. Please wait.

The Forest Whispers My Name Tab

version 2
version 2

Whole song

Interactive

767 views 1 this week
1 commentread comment
1 2 3 4 5
please rate
add to favorites
launch autoscroll
font size
0
reset
how to read this tab
guitar tuner
Autoscroll
slow
fast
+/-
esc
set tempo
stop
Help us to improve Ultimate-Guitar.com Take our survey!
×
Author
Difficulty
Tuning
intermediate
C G C F A D
Cradle of Filth is without a doubt one of the 
Greatest Black Metal Bands Ever
no matter how mainstream and crap they get 
ill still be a fan... but i still prefer their old stuff

thus us the Forest whispers my name from 
The Principles of Evil Made Flesh
thhe old one


Intro
|-----|-----------------------------------------------|-----|
|-----|-----------------------------------------------|-----|
|-----|--------------------------------------------3^-|-----|
|-----|-4---4\8-----------------5---5\8---------------|-----|
|-\\\-|-4---4\8-----------------4---4\8---------------|-\\\-|
|-\\\-|-2---2\6--1-1--1-111111--2---2\6--1-1--1--1----|-\\\-|


Riff A Paul
|---------------------------|-------------------------------|
|---------------------------|-------------------------------|
|-3"------------------3"----|-3"------------------3"--------|
|---5"-2"----2"-------------|---5"-2"----2"----------5---5--|
|---------4"-------4"----2"-|---------4"-------4"----5---3--|
|---------------5"----------|---------------5"-------3---3--|

Gian
|---------------------------|-------------------------------|
|---------------------------|-------------------------------|
|---------------------------|-------------------------------|
|-5"------------------5"----|-5"------------------5"--------|
|---7"-4"----------------2"-|---7"-4"----------------5---4--|
|---------6"-4"-2"-6"-------|---------6"-4"-2"-6"----3---2--|



Both Guitars Escept Gian Tremelos the String switch one string higher 
Riff B
|-------------------------|-----------------------------|
|-------------------------|-----------------------------|
|---------------6-6---4-4-|-----------------8-7---4-4---|
|-5-5--5-5-5--5-6-6-5-4-4-|-2-6-6--6-6-6--6-8-7-5-4-4-2-|
|-5-5--5-5-5--5-4-4-3-2-2-|-0-6-6--6-6-6--6-6-5-3-2-2-0-|
|-3-3--3-3-3--3-----------|---4-4--4-4-4--4-------------|



Paul Riff B.2
|-------------------------------------|
|-------------------------------------|
|-------------------------------------|
|-------------------------------------|
|-1\5-------2\7-------1\5-------1\4---|
|-------------------------------------|

Gian
|-------------------------------------|
|-------------------------------------|
|-------------------------------------|
|-2\6-------4\8-------2\6-------1\4---|
|-------------------------------------|
|-------------------------------------|


Riff C
|--------------------------------|
|--------------------------------|
|--------------------------------|
|-2\9--10--10-9-10---7--5-3-5--7-|
|--------------------------------|
|--------------------------------|

|-------|
|-------|
|-------|
|-------|
|--4\\--|
|--2\\--|

Riff C.2
|---------------------------------------------------------|
|---------------------------------------------------------|
|-6--6-6-6--6-6-6--6-6-6--6-6-9--9-9-9--9-9-8-8-8--9-8--8-|
|-6--6-6-6--6-6-6--6-6-6--6-6-9--9-9-9--9-9-8-8-8--9-8--6-|
|-4--4-4-4--4-4-4--4-4-4--4-4-7--7-7-7--7-7-6-6-6--7-6--6-|
|---------------------------------------------------------|

Riff C.3
|--------------------------------------------------------|
|--------------------------------------------------------|
|-6--6---6--6---6--6---6--6---9--9---9--9---8---8--9-8-6-|
|-6--6---6--6---6--6---6--6---9--9---9--9---8---8--9-8-6-|
|-4--4---4--4---4--4---4--4---7--7---7--7---6---6--7-6-6-|
|--------------------------------------------------------|

Then Repeat Riff C.2
Then Riff C.3

Fill
|-----|
|-----|
|-----|
|--2--|
|--4--|
|--2--|

Riff D Paul
|---------------------------------------------------------------------------|
|---------------------------------------------------------------------------|
|-----------------------------------------------------------------4"--2"----|
|------6"-4"--7"-5<3>-----6"-4"----6"-4<2>------6"-4"---7"-5<3>----------6"-|
|-5"--------6"--------3"---------5"--------5"--------6"---------------------|
|---------------------------------------------------------------------------|

Gian At First
|--------------------------------------------------------------------------|
|--------------------------------------------------------------------------|
|-----------------------------------------------------------------6---4----|
|-6-----------------4---------------------6-----------------------6---4--8-|
|-6-----------------4---------------------6-----------------------4---2--8-|
|-4-----------------2---------------------4------------------------------6-|

Paul Continues
Gian Then Plays
|--------------------------------------------------------------------------|
|----------------------------------------------------------------6"-4"-----|
|------8"-6"--9"-7<5>----8"-6"----8"-6<4>-----8"-6"---9"-7<5>-----------8"-|
|-7"--------8"--------5"-------7"---------5"-------8"----------------------|
|--------------------------------------------------------------------------|
|--------------------------------------------------------------------------|

Then They Both Play the Same
Then Again with the Switching
And yet Again back  to the same

Paul
|------------------|--------------------|-----|
|------------------|--------------------|-----|
|--7-5-------------|--7-5---------------|-----|
|------8-6-4-----4-|------8-6-4-----7-4-|--5--|
|------------5-3-4-|------------5-3-7-4-|--5--|
|----------------2-|----------------5-6-|--3--|

Gian ! String Down Except  ending
Suggest correction
Give kudos to tab author, rate the tab!
1 2 3 4 5
comments
print report bad tab
1 comment total.
0 reply
wtflolbbq 334 wrote on April 25 2009, 04:11 pm

you claim its drop c but you but open D power chords?

guest
You may want to rate the tab now too:
select rating
Wanna post a correction for this tab? Suggest correction