Oops, an error
Loading. Please wait.

The Promise Of Fever Bass Tab

version 1
version 1

Whole song

Interactive

246 views 1 this week
no commentswrite comment
1 2 3 4 5
please rate
add to favorites
launch autoscroll
font size
0
reset
guitar tuner
Autoscroll
slow
fast
+/-
esc
set tempo
stop
Help us to improve Ultimate-Guitar.com Take our survey!
×
Author
-------------------------------------------------------------------------------
			     The Promise of Fever - Cradle of Filth
-------------------------------------------------------------------------------

Tabbed By : Necrotic
e-mail: joelschwallier@gmail.com

Tuning: Drop C

Intro
F|-----------------------------------|
C|-----------------------------------|
G|5----4-5---------5----4-5------54--|
C|---------6----------------6------65|

Verse
F|---------------------------------|
C|---------------------------------|
G|--------44445555-----------------|
C|66666666--------6666666666666666-|x2

F|-----------------------------------|
C|-----------------------------------|
G|5----4-5---------5----4-5------54--|
C|---------6----------------6------65|

F|---------------------------------|
C|---------------------------------|
G|--------44445555-----------------|
C|66666666--------6666666666666666-|x2

Pre-Chorus 
F|----------------------------------------------------------------|
C|----------------------------------------------------------------|
G|----------------5-5-5-5-5-5-5-5-----------------2-2-2-2-5-5-5-5-|
C|6-6-6-6-6-6-6-6-----------------6-6-6-6-6-6-6-6-----------------|x2

Chorus
F|-------------------------------------------------------------------------------|
C|---------------------------------------------------------------------------4-5-|
G|-------------------------------------------------------------------------------|
C|x-x-5-4-xx4-2-1-2-x-x-5-4---5p42h45p42h4-x-x-5-4-xx4-2-1-2-xxxxxx5-4-xxxxxx----|x2

Verse
F|-----------------------------------|
C|-----------------------------------|
G|5----4-5---------5----4-5------54--|
C|---------6----------------6------65|

F|---------------------------------|
C|---------------------------------|
G|--------44445555-----------------|
C|66666666--------6666666666666666-|x2

F|-----------------------------------|
C|-----------------------------------|
G|5----4-5---------5----4-5------54--|
C|---------6----------------6------65|

F|---------------------------------|
C|---------------------------------|
G|--------44445555-----------------|
C|66666666--------6666666666666666-|x2

Pre-Chorus 
F|----------------------------------------------------------------|
C|----------------------------------------------------------------|
G|----------------5-5-5-5-5-5-5-5-----------------2-2-2-2-5-5-5-5-|
C|6-6-6-6-6-6-6-6-----------------6-6-6-6-6-6-6-6-----------------|x2

Chorus
F|-------------------------------------------------------------------------------|
C|---------------------------------------------------------------------------4-5-|
G|-------------------------------------------------------------------------------|
C|x-x-5-4-xx4-2-1-2-x-x-5-4---5p42h45p42h4-x-x-5-4-xx4-2-1-2-xxxxxx5-4-xxxxxx----|x2

Bridge
F|-------------------------------------------------------------|
C|-----------------------2--3h4p3------------------------4-3-2-|
G|2-4-5---4----2-4---5-------------2-4-5---4---2-4---5---------|
C|-------------------------------------------------------------|x2
                                                     .   . . .
F|--------------------------------|
C|--------------------------------|
G|--------------------------------|
C|2---1---5---6---2---1---0---6---|x2

Interlude
F|------------------------------------------------------------------------------------------------|
C|------------------------------------------------------------------------------------------------|
G|------------------------------------------------------------------------------------------------|
C|2---2-2-2-2-2---2-2-2-2-2---2-2-2-2-2---2-2-2-2-6---6-6-6-6-6---6-6-6-6-5---5-5-5-5-5---5-5-5-5-|

F|------------------------------------------------------------------------------------|
C|------------------------------------------------------------------------------------|
G|------------------------------------------------------------------------------------|
C|2---2-2-2-2-2---2-2-2-2-2---2-2-2-2-2---2-2-2-2-6--6--6--x--x--x--5--5--5--x--x--x--|

F|------------------------------------------------------|
C|------------------------------------------------------|
G|------------------------------------------------------|
C|5--x4--x2---5-4-2-6--6--6--x--x--x--5--5--5--x--x--x--|

F|---------------------------------------------------------|
C|---------------------------------------------------------|
G|---------------------------------------------------------|
C|5-5-5x--5--x4--x5-4-2--6--6--6--x--x--x--5--5--5--x--x--x|x3

Rest

Bridge
F|-------------------------------------------------------------|
C|-----------------------2--3h4p3------------------------4-3-2-|
G|2-4-5---4----2-4---5-------------2-4-5---4---2-4---5---------|
C|-------------------------------------------------------------|
                                                     .   . . .

F|-------------------------------------------------------------|
C|-----------------------2--3h4p3------------------------4-3-2-|
G|2-4-5--------2-4---5-------------2-4-5-------2-4---5---------|
C|-------------------------------------------------------------|
                                                     .   . . .
F|--------------------------------|
C|--------------------------------|
G|--------------------------------|
C|2---1---5---6---2---1---0---6---|x2

Interlude
F|------------------------------------------------------------------------------------------------|
C|------------------------------------------------------------------------------------------------|
G|------------------------------------------------------------------------------------------------|
C|2---2-2-2-2-2---2-2-2-2-2---2-2-2-2-2---2-2-2-2-6---6-6-6-6-6---6-6-6-6-5---5-5-5-5-5---5-5-5-5-|

F|------------------------------------------------------------------------------------|
C|------------------------------------------------------------------------------------|
G|------------------------------------------------------------------------------------|
C|2---2-2-2-2-2---2-2-2-2-2---2-2-2-2-2---2-2-2-2-6--6--6--x--x--x--5--5--5--x--x--x--|

Rest while violins play

Verse
F|-----------------------------------|
C|-----------------------------------|
G|5----4-5---------5----4-5------54--|
C|---------6----------------6------65|

F|---------------------------------|
C|---------------------------------|
G|--------44445555-----------------|
C|66666666--------6666666666666666-|x2

F|-----------------------------------|
C|-----------------------------------|
G|5----4-5---------5----4-5------54--|
C|---------6----------------6------65|

F|---------------------------------|
C|---------------------------------|
G|--------44445555-----------------|
C|66666666--------6666666666666666-|x2

Outro
F|----------------------------------------|
C|----------------------------------------|
G|5---------------------------------------|
C|--------6-------3-------2b4------0------|

| /  slide up
| \  slide down
| h  hammer-on
| p  pull-off
| ~  vibrato
| +  harmonic
| x  Mute note
===============================================================================
Suggest correction
Give kudos to tab author, rate the tab!
1 2 3 4 5
comments
print report bad tab
guest
You may want to rate the tab now too:
select rating
Please do not post tabs as comments. Select "correction" instead!