Oops, an error
Loading. Please wait.

The Promise Of Fever Tab

version 1
version 1

Whole song

Interactive

1,338 views 3 this week
2 commentsread comments
1 2 3 4 5
accurate
x 3
add to favorites
launch autoscroll
font size
0
reset
how to read this tab
guitar tuner
Autoscroll
slow
fast
+/-
esc
set tempo
stop
Help us to improve Ultimate-Guitar.com Take our survey!
×
#----------------------------------PLEASE NOTE---------------------------------#
#This file is the author's own work and represents their interpretation of the-#
#song. You may only use this file for private study, scholarship, or research.-#
#------------------------------------------------------------------------------#

Cradle Of Fith - The Promise Of Fever
Submitted By: cradle of_0filth
EMail: lomeli@yahoo.com

Tuning: Drop C (C G C F A D)

 
.  - palm mute           /  - slide up to
\  - slide down to       ~  - vibrato
h  - hammer on           b  - Bend
p  - pull off            Suffixes for bend
t  - tap                 f  - full bend    h - half bend
ph - pinched harmonic    q  - quarter bend t - tap bend
*  - see comment         ^  - Hold bend    r release bend
x  - Stuccatto           ~  - vibrato bend
,  - slight palm mute    () - ghost note, sustained note
"  - tremolo note        <> - Trill

Tuning:Down 2 Whole Steps,Standard C

Note: Throughout the song, there is alot of fast picking of chords.
The number of times I've written isn't exact, but should give you
an idea.


Intro Riff (1)
|--------------------------------------------------|
|--------------------------------------------------|
|--------------------------------------------------|
|--9---8-9----------------9---8-9------------------|
|--7---6-7--888888888888--7---6-7--888888889-8-7-8-|
|-----------666666666666-----------666666667-6-5-6-|
            ............           ........
Riff 2
|--------------------------------------|
|--------------------------------------|
|--------------------------------------|
|------------------------88888888888888|
|--7-7-77-7-99-9-1010-10-66666666666666|
|--5-5-55-5-77-7--8-8--8---------------|
       .    .     .      .
2nd Ending
|----------------|
|----------------|
|----------------|
|--88888888-9-11-|
|--66666666-7--9-|
|-----------7--9-|

Then Riff 1
Then Riff 2

Riff 3
|-----------------------------------------------|
|-----------------------------------------------|
|-----------------------------------------------|
|--4"----------4"---------3"-2"-3"--3"-5"-3"-2"-|
|-----2"-4"-2"---2"-4"-2"---------5"------------|
|-----------------------------------------------|

2ND Ending for Riff 3
|-----------|
|-----------|
|-----------|
|-------5---|
|--7----3-4-|
|--5------2-|

Riff 4
|------------------------------------------------------------------|
|------------------------------------------------------------------|
|------------------------------------------------------5-6----*--*-|
|------------------------------------------------------3-4---76--65|
|--44-7-6-44-6-5-3-4--44-7-6-44-------32-44-7-6-44-6-5-3-4---------|
|--22-5-4-22-4-3-1-2--22-5-4-22-542542---22-5-4-22-4-3-----7"--5"--|
   ..     ..          ..     .. ........ ..     ..

*Semi-Pinched Harmonics
Play twice, then Riff 1,2,3,4
Then Chorus Riff

Chorus(Riff 5)
|--------------------------------------|
|--------------------------------------|
|--------------------------------------|
|--7--9--10--9---7--9--10--12--12/13\12|
|--5--7---8--7---5--7---8--10--10/11\10|
|--5--7---8--7---5--7---8--10--10/11\10|

|--------------------------------------|
|--------------------------------------|
|--------------------------------------|
|--7--9--10--9---7--9--10--10/12\10-9--|
|--5--7---8--7---5--7---8---8/10\8--7--|
|--5--7---8--7---5--7---8---8/10\8--7--|
                        X

Riff 6 (A)
|----------------|
|----------------|
|----------------|
|----------------|
|----------------|
|--2---4---5---6-|

Riff 6 (B)
|----------------|
|----------------|
|----------------|
|-11--10---7-----|
|--9---8---5---8-|
|--9---8---5---6-|

Fill
|---------------|
|---------------|
|---------------|
|---------------|
|--7-7-7--6-6-6-|
|--5-5-5--4-4-4-|
   . . .  . . .
Bridge (Riff 7)
|---------------------------------------------|
|---------------------------------------------|
|---------------------------------------------|
|-------4---3---767---------------------------|
|--4----------------7-7-7-8~7-6-6-6-8~7--4-4-4|
|--2--2---2---2-----5-5-5-----4-4-4------2-2-2|
      .   .   .     . . .     . . .      . . .

Then Chorus
Play as usual once, then leave out 3rd,4th chords(both measures
 second time.
Then Riff 6 (A and B)
Then Fill and Bridge
Orchestra Break
Then Riff 1,2

End With
|--------------------|
|--------------------|
|--------------------|
|--9-----------4-----|
|--7---8---5---3---2-|
|--7---6---3---2---0-|

 
 
Downloaded from www.taborama.com

================================================================================


Cradle Of Filth - The Promise Of Fever
Submitted By: Darkreign1776slayer
EMail: Darkreign1776@Cradleoffilthonline.com

Tuning: Full Step Down (D G C F A D)

Tr*= Tremelo Pick 
{}=Pinched Harmonic

By: Matthew Butterfield


Riff 1:                                                 Play Twice 2x
D|---------------------------|---------------------------------------|
A|*--------------------------|--------------------------------------*|
F|---------------------------|---------------------------------------|
C|*--------------------------|-----------3-----4-----7-6------------*|
G|-3--2-3-7----3--2-3-7-8767-|-----5-0-0-1-0-0-2-0-0-5-4444444444444-|
D|-1--0-1-5----1--0-1-5-6545-|-0-0-3---------------------------------|
                             pm. .   . .   . .   . .    ............

Riff 2:                                                            Play Twice 2x
D|----------------|----------------|----------------|--------------------------||
A|*---------------|----------------|----------------|-------------------------*||
F|----------------|----------------|----------------|--------------------------||
C|*---------------|----------------|----------------|-------------------------*||
G|7-------7-------|6-5-6-5-6-8-6-5-|7-------7-------|--5-------8--3------------||
D|--5-7-5---5-7-5-|----------------|--5-7-5---5-7-5-|--3-------6--1------------||
 tr * * * * * * * *  * * * * * * * *  * * * * * * * 


Riff 3:
D|----------------------|----------------------|---------------------------------||
A|*---------------------|----------------------|---------------------------------||
F|----------------------|----------------------|---------------------------------||
C|*---------------------|----------------------|---------------------------------||
G|----54-----3/43-2-3--|----54-------------21-|----54-----3/43-2-3-------------||
D|0-0-32-0-0-1/21-0-1--|0-0-32-0-0-320-432----|0-0-32-0-0-1/21-0-1-------------||
pm. .    . .             . .    . . ... .....   . .    . . 
                       2x
D|----------------------||
A|---------------------*||
F|----------------------||
C|------5{4}-----3{2}--*||
G|000000----------------||
D|---------333333-------||
Pm......   ......

Song Order:
Riff 1
riff 2
riff 3
riff 1
riff 2 
riff 3
Suggest correction
What's this?
You can suggest a correction to this tab. Community and Mods will review your correction and vote to approve or reject it.
comments
We did not receive enough feedback on this tab! Please rate:
print report bad tab
1 2 3 4 5
2 comments total.
0 reply
CKYBAMHIM1990 114 wrote on February 23 2006, 01:43 pm

Awesome. Enough Said.

0 reply
Exavior 104 wrote on February 1 2008, 11:53 am

you have two tunings listed, drop c and standard c

guest
You may want to rate the tab now too:
select rating
Please do not post tabs as comments. Select "correction" instead!