Oops, an error
Loading. Please wait.

The Twisted Nails Of Faith Tab

version 1
version 1

Whole song

Interactive

1,302 views 1 this week
no commentswrite comment
1 2 3 4 5
2 more votes to show rating
add to favorites
launch autoscroll
font size
0
reset
how to read this tab
guitar tuner
Autoscroll
slow
fast
+/-
esc
set tempo
stop
Help us to improve Ultimate-Guitar.com Take our survey!
×
Cradle of Filth - The Twisted Nails of Faith
from the album Cruelty and the Beast

Tabbed by Frank Blackthorne
Any comments or corrections can be sent to: Steinzo@hotmail.com
Warning: some little bits are still missing but this will give you a good
         idea of how the song is played. This tab has been made for standar
         tuning.
Legend:
        . =palm muting
        ~ =vibrato
        / =slide up
        \ =slide down
Riff 1 (listen to the song for the exact timing...)
|-----------------------------------------------------
|-----------------------------------------------------
|-----------------------------------------------------
|-3---5-4-----------------3---5-4---------------------
|-1---3-2---6-5-6---4-7---1---3-2---5---4---3-4-3-2-3-
|-----------4-3-4---2-5-------------3---2---1-2-1-0-1-

Riff 2
|-------------------------------------------------------------
|-------------------------------------------------------------
|---------------------------------------------------------4-4-
|-5-5---5-5-5---5-6-6---6-----------------4-4---4-5-5---5-2-2-
|-3-3---3-3-3---3-4-4---4-6-6---6-4-4---4-2-2---2-3-3---3-----
|-------------------------4-4---4-2-2---2---------------------

tremolo pick here
|---------------------------------
|---------------------------------
|---------------------------------
|---------6-----7-6---4---7-6-4---
|-4---6-4-----6-----------------6-
|---------------------------------

Repeat Riff 1

Riff 3 (trem. pick again)
|-----------------------------------------
|-----------------------------------------
|-----------------------------------------
|-----------------------------------------
|-5---7-5-7-8---7-8-7-5---7-5-7-8---7-8-7-
|-----------------------------------------

|-----------------------------------------
|-----------------------------------------
|-----------------------------------------
|-4---6-4-6-7---6-7-6-4---6-4-6-7---6-7-6-
|-----------------------------------------
|-----------------------------------------

Repeat Riff 2, 1 and 3

Riff 4a (trem. pick)               Riff 4b
|--------------------------------- |--------------------------------------
|--------------------------------- |--------------------------------------
|--------------------------------- |--------------------------------------
|--------------------------------- |--------------------------------------
|-7-----0-7-----0-6-----0-5-0-6--- |-/7-~-----/7-~-----/6-~-----/5-~-/6-~-
|--------------------------------- |--------------------------------------

Riff 5a
|--------------------------------------------
|--------------------------------------------
|---10-11---10-11---10-11---10-11---10-11-10-
|-9-------9-------9-------9-------9----------
|--------------------------------------------
|--------------------------------------------

Riff 5b
|-------------------------------------------------
|-------------------------------------------------
|----11-12----11-12----11-12----11-12----11-12-11-
|-10-------10-------10-------10-------10----------
|-------------------------------------------------
|-------------------------------------------------

Repeat Riff 5a

Riff 5c (i`m not sure about this part)
|---------------------------------------------
|---------------------------------------------
|-------------------------4-------------------
|---5-6---5-6---5-6---5-6---6-5-3-5-6-5-3-5---
|-3-----3-----3-----3-------------------------
|---------------------------------------------

Fill 1
|-----------------------------------------
|-----------------------------------------
|-----------------------------------------
|-----------------------------------------
|-2-2------6-6-----2-2-----6-6---4-4---x\-
|-0-0------4-4-----0-0-----4-4---2-2---x\-

Riff 6a
|-----------------------------------------------------------------
|-----------------------------------------------------------------
|-----------------------------------------------------------------
|-----------------------------------------------------------------
|-2-------4---6---6---------------2-------4---6---6-------4-------
|-0-------2---6---4---------------0-------2---6---4-------2-------

Riff 6b
|------------------------------------------------------------------
|------------------------------------------------------------------
|------------------------------------------------------------------
|------------------------------------------------------------------
|-2-222-222-222-222-222-222-222-226-666-666-666-666-666-666-666-66-
|-0-000-000-000-000-000-000-000-004-444-444-444-444-444-444-444-44-
  . ... ... ... ... ... ... ... ... ... ... ... ... ... ... ... ..

|------------------------------------------------------------------
|------------------------------------------------------------------
|------------------------------------------------------------------
|------------------------------------------------------------------
|-2-222-222-222-222-222-222-222-226-666-666-666-664-444-444-444-44-
|-0-000-000-000-000-000-000-000-004-444-444-444-442-222-222-222-22-
  . ... ... ... ... ... ... ... ... ... ... ... ... ... ... ... ..

Riff 6c
|---------------------------------
|---------------------------------
|---------------------------------
|---------------------------------
|-2-------6-------2-------6---4---
|-0-------4-------0-------4---2---

Repeat Riff 6b then play Riff 6c `till fade
Suggest correction
Give kudos to tab author, rate the tab!
1 2 3 4 5
comments
print report bad tab
guest
You may want to rate the tab now too:
select rating
Wanna post a correction for this tab? Suggest correction