Oops, an error
Loading. Please wait.

The Twisted Nails Of Faith Tab

version 2
version 2

Whole song

Interactive

448 views 1 this week
no commentswrite comment
1 2 3 4 5
please rate
add to favorites
launch autoscroll
font size
0
reset
how to read this tab
guitar tuner
Autoscroll
slow
fast
+/-
esc
set tempo
stop
Help us to improve Ultimate-Guitar.com Take our survey!
×
the twisted nails of faith-cradle of filth

Riff A1
|----------------------------------------|
|----------------------------------------|
|----------------------------------------|
|-5---7-6--------------------------------|
|-3---5-4-7-8-6-9------------------------|
|---------5-6-4-7------------------------|

|----------------------------------------|
|----------------------------------------|
|----------------------------------------|
|-5---7-6--------------------------------|
|-3---5-4-7-6-5-6-5-4-5------------------|
|---------5-4-3-4-3-2-3------------------|

Riff A2
|----------------------------------------|
|----------------------------------------|
|----------------------------------------|
|-7----8-------6-7-11--------------------|
|-5----6-8-9-8-4-5-9---------------------|
|--------6-7-6---------------------------|
|                                        |
|                                        |
|  tremelo pick                          |
|----------------------------------------|
|----------------------------------------|
|----------------------------------------|
|----------------8---9--8--6--9--8-------|
|-6-----8----6-----8---------------9-8---|
|----------------------------------------|

Riff A3
|----------------------------------------|
|----------------------------------------|
|----------------------------------------|
|----------------------------------------|
|-2---4---2---4---5----4---5---4---------|
|-0---2---0---2---3----2---3---2---------|

|----------------------------------------|
|----------------------------------------|
|----------------------------------------|
|----------------------------------------|
|-6---8---6---8---9---8---9---8----------|
|-4---6---4---6---7---6---7---6----------|

Riff B1
|------------------------------------------------------------------|
|------------------------------------------------------------------|
|------------------------------------------------------------------|
|-7--7--7-7-7-7--8-8-8-----------------6--6--6--7--7--7--11-11-11--|
|-5--5--5-5-5-5--6-6-6--8-8--9--8-8-8--4--4--4--5--5--5--9--9--9---|
|-----------------------6-6--7--6-6-6------------------------------|

|----------------------------------------|
|----------------------------------------|
|----------------------------------------|
|----------------8---9--8--6--9--8-------|
|-6-----8----6-----8---------------9-8---|
|----------------------------------------|

Riff B2 this riff is tremelo picking
X2
|----------------------------------------|
|----------------------------------------|
|----------------------------------------|
|-4-----------------------0-2------------|
|----------------------------------------|
|----------------------------------------|

|----------------------------------------|
|----------------------------------------|
|----------------------------------------|
|-3-----------------------0-1------------|
|----------------------------------------|
|----------------------------------------|

|----------------------------------------|
|----------------------------------------|
|----------------------------------------|
|-2------------------------3-------------|
|----------------------------------------|
|----------------------------------------|

|----------------------------------------|
|----------------------------------------|
|----------------------------------------|
|-4-0-2-4-0-2-3-0-1-2-3------------------|
|----------------------------------------|
|----------------------------------------|

Riff B3
Lead Guitar
|--------------------------------------------------|
|--------------------------------------------------|
|----12-13----12-13----12-13----12-13----12-13-12--|
|-10-------10-------10-------10-------10-----------|
|--------------------------------------------------|
|--------------------------------------------------|

|--------------------------------------------------|
|--------------------------------------------------|
|----13-14---13-14----13-14----13-14----13-14-13---|
|-11------11-------11-------11-------11------------|
|--------------------------------------------------|
|--------------------------------------------------|

Rythem Guitar
|----------------------------------------|
|----------------------------------------|
|----------------------------------------|
|---5-6---5-6---5-6---5-6---5-6-5--------|
|-3-----3-----3-----3-----3--------------|
|----------------------------------------|

|----------------------------------------|
|----------------------------------------|
|----------------------------------------|
|---7-8---7-8---7-8---7-8---7-8-7--------|
|-5-----5-----5-----5-----5--------------|
|----------------------------------------|

Riff C1
|----------------------------------------|
|----------------------------------------|
|----------------------------------------|
|----------------------------------------|
|-4--4------8--8-----4-4--8-8--6---------|
|-2--2------6--6-----2-2--6-6--4---------|

|-------------------------------------------|
|-------------------------------------------|
|-------------------------------------------|
|-------------------------------------------|
|-4--4-3----8-8----4--4-3---8-8-8-8--6-6-6--|
|-2--2-1----6-6----2--2-1---6-6-6-6--4-4-4--|

Riff C2
-------------------------------------------------------------------
-------------------------------------------------------------------
-------------------------------------------------------------------
-------------------------------------------------------------------
-4-444-444-444-444-444-444-444-44-8-888-888-888-888-888-888-888-88-
-2-222-222-222-222-222-222-222-22-6-666-666-666-666-666-666-666-66-
  . ... ... ... ... ... ... ... .. . ... ... ... ... ... ... ... ..

-------------------------------------------------------------------
-------------------------------------------------------------------
-------------------------------------------------------------------
-------------------------------------------------------------------
-4-444-444-444-444-444-444-444-44-8-888-888-888-888-888-888-888-886-666-666-6666
-2-222-222-222-222-222-222-222-22-6-666-666-666-666-666-666-666-664-444-444-4444
 . ... ... ... ... ... ... ... .. . ... ... ... ... ... ... ... ... ... ... ....

Solo

|-------------------------------------------|
|-------------------------------------------|
|-6-5-6-6-6-6--------10-9-10-10-10-8-10-8---|
|-------------------------------------------|
|-------------------------------------------|
|-------------------------------------------|

riff C3
repeat till fade out
|-------------------------------------------|
|-------------------------------------------|
|-------------------------------------------|
|-------------------------------------------|
|-4-----8-----4-----8-----6-----------------|
|-2-----6-----2-----6-----4-----------------|
Suggest correction
Give kudos to tab author, rate the tab!
1 2 3 4 5
comments
print report bad tab
guest
You may want to rate the tab now too:
select rating
Please do not post tabs as comments. Select "correction" instead!