Oops, an error
Loading. Please wait.

Tortured Soul Asylum bass

version 1
version 1

Whole song

Interactive

222 views 1 this week
no commentswrite comment
1 2 3 4 5
3 more votes to show rating
add to favorites
×
Save as Personal and add changes to this tab that will be seen only by you. Learn more ›
×
You can save this tab as Personal to edit and correct it or add notes. All changes will be seen only by you. Learn more »
launch autoscroll
font size
0
reset
guitar tuner
edit
Autoscroll
slow
fast
+/-
esc
set tempo
stop
--------------------------------------------------------------------------------
Tortured Soul Asylum - Cradle of Filth
--------------------------------------------------------------------------------

G||------------------|------|------------------|------|------|------|
D||------------------|------|------------------|------|------|------|
A||------------------|------|------------------|------|------|------|
D||------------------|------|------------------|------|------|------|


                                                               
--------------------|--------------------|--------------------|
--------------------|--------------------|--------------------|
--------------------|--------------------|--------------------|
--4--------4--------|--4--------4--------|--3--------3--------|


                                                               
--------------------|--------------------|--------------------|
--------------------|--------------------|--------------------|
--------------------|--------------------|--------------------|
--3--------3--------|--4--------4--------|--4--------4--------|


                                                               
--------------------|--------------------|--------------------|
--------------------|--------------------|--------------------|
--------------------|--------------------|--------------------|
--3--------3--------|--3--------6--------|--4--------4--------|


                                                               
--------------------|--------------------|--------------------|
--------------------|--------------------|--------------------|
--------------------|--------------------|--------------------|
--4--------4--------|--3--------3--------|--3--------3--------|


                                                                
--------------------|--------------------|---------------------|
--------------------|--------------------|---------------------|
--------------------|--------------------|---------------------|
--4--------4--------|--4--------4--------|--3--------3------2--|


                                                                     
----------------------|----------------------|----------------------|
----------------------|----------------------|----------------------|
----------------------|----------------------|----------------------|
--3--2--3/-7----------|--4----4----4----4----|--4----4----4----4----|


                                                                     
----------------------|----------------------|----------------------|
----------------------|----------------------|----------------------|
----------------------|----------------------|----------------------|
--3----3----3----3----|--3----3----3----3----|--4----4----4----4----|


                                                                    
----------------------|---------------------|----------------------|
----------------------|---------------------|----------------------|
----------------------|---------------------|----------------------|
--4----4----4----4----|--3--------3------2--|--3--2--3/-7----------|


                                                                           
-------------------------|-----------------------|------------------------|
-------------------------|-----------------------|------------------------|
-------------------------|-----------------------|------------------------|
--4--4--4----4--4--4--4--|--4--4--4--4--3b-------|----3--3----3--3--3--3--|


                                                                         
----------------------|-------------------------|-----------------------|
----------------------|-------------------------|-----------------------|
----------------------|-------------------------|-----------------------|
--3--2--3/-7----------|--4--4--4----4--4--4--4--|--4--4--4--4--3b-------|


                                                                        
------------------------|----------------------|-----------------------|
------------------------|----------------------|-----------------------|
------------------------|----------------------|-----------------------|
----3--3----3--3--3--3--|--3--2--3/-7----------|--1--1--1--1--1--------|


                                                                              
-----------------------|--------------------------|--------------------------|
-----------------------|--------------------------|--------------------------|
-----------------------|--------------------------|--------------------------|
--0--0--0--0--0--------|--6--6--6--6--6--6--6--6--|--6--6--6--6--6--6--6--6--|


                                                                           
-----------------------|-----------------------|--------------------------|
-----------------------|-----------------------|--------------------------|
-----------------------|-----------------------|--------------------------|
--1--1--1--1--1--------|--0--0--0--0--0--------|--6--6--6--6--6--6--6--6--|


                                                         
--------------------------|-----------------------------|
--------------------------|-----------------------------|
--------------------------|-----------------------------|
--6--6--6--6--6--6--6--6--|--1-0-1-0-1----1-0-0-0-1--4--|


                                                            
-----------------------------|-----------------------------|
-----------------------------|-----------------------------|
-----------------------------|-----------------------------|
--1-0-1-0-1----1-0-0-0-1--6--|--1-0-1-0-1----1-0-0-0-1--4--|


                                                         
--------------------------|-----------------------------|
--------------------------|-----------------------------|
--------------------------|-----------------------------|
--1-0-1-0-1----3---2---1--|--1-0-1-0-1----1-0-0-0-1--4--|


                                                            
-----------------------------|-----------------------------|
-----------------------------|-----------------------------|
-----------------------------|-----------------------------|
--1-0-1-0-1----1-0-0-0-1--6--|--1-0-1-0-1----1-0-0-0-1--4--|


                                                           
--------------------------|-------------------------------|
--------------------------|-------------------------------|
--------------------------|--------------------------6----|
--1-0-1-0-1----3---2---1--|--0-0-0-0-1-1-1-1-5-5-5-5------|


                                                      
--------------------------|--------------------------|
--------------------------|--------------------------|
--3--3--3--3--3--3--5--6--|--------------------------|
--------------------------|--5--5--5--5--5--5--5--5--|


                                                      
--------------------------|--------------------------|
--------------------------|--------------------------|
--------------------------|--2--2--2--2--6--6--5--1--|
--6--6--6--6--6--6--6--6--|--------------------------|


                                                      
--------------------------|--------------------------|
--------------------------|--------------------------|
--3--3--3--3--3--3--3--3--|--------------------------|
--------------------------|--5--5--5--5--5--5--5--5--|


                                                      
--------------------------|--------------------------|
--------------------------|--------------------------|
--------------------------|--------------6--6--5--1--|
--6--6--6--6--6--6--6--6--|--6--6--6--6--------------|


                                                      
--------------------------|--------------------------|
--------------------------|--------------------------|
--3--3--3--3--3--3--5--6--|--------------------------|
--------------------------|--5--5--5--5--5--5--5--5--|


                                                      
--------------------------|--------------------------|
--------------------------|--------------------------|
--------------------------|--2--2--2--2--6--6--5--1--|
--6--6--6--6--6--6--6--6--|--------------------------|


                                                      
--------------------------|--------------------------|
--------------------------|--------------------------|
--3--3--3--3--3--3--3--3--|--------------------------|
--------------------------|--5--5--5--5--5--5--5--5--|


                                                                       
--------------------------|----------------------------|--------------|
--------------------------|----------------------------|--------------|
--------------------------|--------------6-6-6-6-5--1--|--------------|
--6--6--6--6--6--6--6--6--|--6--6--6--6----------------|--------------|


                                                
--------------|--------------------------------|
--------------|--------------------------------|
--------------|--------4--3--4--3--3--1--3--1--|
--------------|--3--3--------------------------|


                                                                           
-----------------------------------|--------------------------------------|
-----------------------------------|--------------------------------------|
--------4--3--4--4--4-4-4-3--4--3--|--------------------------------------|
--3--3-----------------------------|--5--5--5--8--7--8--5--5--5--8--7--8--|


                                                                              
--------------------------------------|--------------------------------------|
--------------------------------------|--------------------------------------|
--5--5--5-----------------------------|--------------------------------------|
-----------8--8--8--7--7--7--8--7--8--|--4--4--4--4--4--4--4--4--4--4--4--4--|


                                       
--------------------------------------|
--------------------------------------|
--------------------------------------|
--3--3--3--3--3--3--3--3--3--3--3--3--|


                                             
--------------------------------------------|
--------------------------------------------|
--------------------------------------------|
--8--8--8--11--10--11--8--8--8--11--10--11--|


                                                                              
--------------------------------------|--------------------------------------|
--------------------------------------|--------------------------------------|
--8--8--8--4--4--4--3--3--3--4--3--4--|--------------------------------------|
--------------------------------------|--4--4--4--4--4--4--4--4--4--4--4--4--|


                                       
--------------------------------------|
--------------------------------------|
--------------------------------------|
--3--3--3--3--3--3--3--3--3--3--3--3--|


                                             
--------------------------------------------|
--------------------------------------------|
--------------------------------------------|
--8--8--8--11--10--11--8--8--8--11--10--11--|


                                                                              
--------------------------------------|--------------------------------------|
--------------------------------------|--------------------------------------|
--8--8-8-8-4--4--4--3--3--3--4--3--4--|--------------------------------------|
--------------------------------------|--4--4--4--4--4--4--4--4--4--4--4--4--|


                                                           
-------------------|--------------------------------------|
-------------------|--------------------------------------|
-------------------|--------------------------------------|
--3----------------|--5--5--5--5--5--5--5--5--5--5--5--5--|


                                                                              
--------------------------------------|--------------------------------------|
--------------------------------------|--------------------------------------|
--------------------------------------|--------------------------------------|
--9--9--9--9--9--9--9--9--9--9--9--9--|--8--8--8--8--8--8--8--8--8--8--8--8--|


                                                                             
-------------------------------------|--------------------------------------|
-------------------------------------|--------------------------------------|
-------------------------------------|--------------------------------------|
--9--9--9--9--9--9--5--5----x--5--5--|--5--5--5--5--5--5--5--5--5--5--5--5--|


                                                                              
--------------------------------------|--------------------------------------|
--------------------------------------|--------------------------------------|
--------------------------------------|--------------------------------------|
--9--9--9--9--9--9--9--9--9--9--9--9--|--8--8--8--8--8--8--8--8--8--8--8--8--|


                                                                  
--------------------------------------|--------------------------|
--------------------------------------|--------------------------|
--------------------------------------|--3--3--3--3--3--3--5--6--|
--9--9--9--9--9--9--9--9--9--9--9--9--|--------------------------|


                                                      
--------------------------|--------------------------|
--------------------------|--------------------------|
--------------------------|--------------------------|
--5--5--5--5--5--5--5--5--|--6--6--6--6--6--6--6--6--|


                                                      
--------------------------|--------------------------|
--------------------------|--------------------------|
--2--2--2--2--6--6--5--1--|--3--3--3--3--3--3--3--3--|
--------------------------|--------------------------|


                                                      
--------------------------|--------------------------|
--------------------------|--------------------------|
--------------------------|--------------------------|
--5--5--5--5--5--5--5--5--|--6--6--6--6--6--6--6--6--|


                                                      
--------------------------|--------------------------|
--------------------------|--------------------------|
--------------6--6--5--1--|--3--3--3--3--3--3--5--6--|
--6--6--6--6--------------|--------------------------|


                                                      
--------------------------|--------------------------|
--------------------------|--------------------------|
--------------------------|--------------------------|
--5--5--5--5--5--5--5--5--|--6--6--6--6--6--6--6--6--|


                                                      
--------------------------|--------------------------|
--------------------------|--------------------------|
--2--2--2--2--6--6--5--1--|--3--3--3--3--3--3--3--3--|
--------------------------|--------------------------|


                                                      
--------------------------|--------------------------|
--------------------------|--------------------------|
--------------------------|--------------------------|
--5--5--5--5--5--5--5--5--|--6--6--6--6--6--6--6--6--|


                                                                       
----------------------------|--------------------|--------------------|
----------------------------|--------------------|--------------------|
--------------6-6-6-6-5--1--|--------------------|--------------------|
--6--6--6--6----------------|--------------1--1--|--------------0--0--|


                                                                           
--------------------------|--------------------------|--------------------|
--------------------------|--------------------------|--------------------|
--------------------------|--------------------------|--------------------|
--6--6--6--6--6--6--6--6--|--6--6--6--6--6--6--6--6--|--------------1--1--|


                                                                           
--------------------|--------------------------|--------------------------|
--------------------|--------------------------|--------------------------|
--------------------|--------------------------|--------------------------|
--------------0--0--|--6--6--6--6--6--6--6--6--|--6--6--6--6--6--6--6--6--|


                                                            
-----------------------------|-----------------------------|
-----------------------------|-----------------------------|
-----------------------------|-----------------------------|
--1-0-1-0-1----1-0-0-0-1--4--|--1-0-1-0-1----1-0-0-0-1--6--|


                                                         
-----------------------------|--------------------------|
-----------------------------|--------------------------|
-----------------------------|--------------------------|
--1-0-1-0-1----1-0-0-0-1--4--|--1-0-1-0-1----3---2---1--|


                                                            
-----------------------------|-----------------------------|
-----------------------------|-----------------------------|
-----------------------------|-----------------------------|
--1-0-1-0-1----1-0-0-0-1--4--|--1-0-1-0-1----1-0-0-0-1--6--|


                                                         
-----------------------------|--------------------------|
-----------------------------|--------------------------|
-----------------------------|--------------------------|
--1-0-1-0-1----1-0-0-0-1--4--|--1-0-1-0-1----3---2---1--|


                                                              
-------------------------------|-----------------------------|
-------------------------------|-----------------------------|
--------------------------6----|-----------------------------|
--0-0-0-0-1-1-1-1-5-5-5-5------|--1-0-1-0-1----1-0-0-0-1--4--|


                                                            
-----------------------------|-----------------------------|
-----------------------------|-----------------------------|
-----------------------------|-----------------------------|
--1-0-1-0-1----1-0-0-0-1--6--|--1-0-1-0-1----1-0-0-0-1--4--|


                                                         
--------------------------|-----------------------------|
--------------------------|-----------------------------|
--------------------------|-----------------------------|
--1-0-1-0-1----3---2---1--|--1-0-1-0-1----1-0-0-0-1--4--|


                                                            
-----------------------------|-----------------------------|
-----------------------------|-----------------------------|
-----------------------------|-----------------------------|
--1-0-1-0-1----1-0-0-0-1--6--|--1-0-1-0-1----1-0-0-0-1--4--|


                                                                                
--------------------------|-------------------------------|--------------------|
--------------------------|-------------------------------|--------------------|
--------------------------|--------------------------6----|--------------------|
--1-0-1-0-1----3---2---1--|--0-0-0-0-1-1-1-1-5-5-5-5------|--4--------4--------|


                                                               
--------------------|--------------------|--------------------|
--------------------|--------------------|--------------------|
--------------------|--------------------|--------------------|
--4--------4--------|--3--------3--------|--3--------6--------|


                                                                
--------------------|--------------------|---------------------|
--------------------|--------------------|---------------------|
--------------------|--------------------|---------------------|
--4--------4--------|--4--------4--------|--3--------3------2--|


                                                                 
----------------------|--------------------|--------------------|
----------------------|--------------------|--------------------|
----------------------|--------------------|--------------------|
--3--2--3/-7----------|--4--------4--------|--4--------4--------|


                                                               
--------------------|--------------------|--------------------|
--------------------|--------------------|--------------------|
--------------------|--------------------|--------------------|
--3--------3--------|--3--------6--------|--4--------4--------|


                                                                  
--------------------|---------------------|----------------------|
--------------------|---------------------|----------------------|
--------------------|---------------------|----------------------|
--4--------4--------|--3--------3------2--|--3--2--3/-7----------|


                                                                           
-------------------------|-----------------------|------------------------|
-------------------------|-----------------------|------------------------|
-------------------------|-----------------------|------------------------|
--4--4--4----4--4--4--4--|--4--4--4--4--3b-------|----3--3----3--3--3--3--|


                                                                         
----------------------|-------------------------|-----------------------|
----------------------|-------------------------|-----------------------|
----------------------|-------------------------|-----------------------|
--3--2--3/-7----------|--4--4--4----4--4--4--4--|--4--4--4--4--3b-------|


                                                                    
------------------------|----------------------|-------------------|
------------------------|----------------------|-------------------|
------------------------|----------------------|-------------------|
----3--3----3--3--3--3--|--3--2--3/-7----------|--5----------------|


                                                                              
------------------|-------------------|------------------|-------------------|
------------------|-------------------|------------------|-------------------|
------------------|-------------------|------------------|-------------------|
------------------|--8----------------|------------------|--0----------------|


                                                                               
------------------|--------------------|------------------|-------------------|
------------------|--------------------|------------------|-------------------|
------------------|--------------------|------------------|-------------------|
------------------|--10----------------|------------------|--8----------------|


                                                          
------------------|-------------------|------------------|
------------------|-------------------|------------------|
------------------|-------------------|------------------|
------------------|--0----------------|------------------|


                                                                              
--------------------------------------|--------------------------------------|
--------------------------------------|--------------------------------------|
--------------------------------------|--------------------------------------|
--5--5--5--5--5--5--5--5--5--5--5--5--|--5--5--5--5--5--5--5--5--5--5--5--5--|


                                                                              
--------------------------------------|--------------------------------------|
--------------------------------------|--------------------------------------|
--------------------------------------|--------------------------------------|
--8--8--8--8--8--8--8--8--8--8--8--8--|--8--8--8--8--8--8--8--8--8--8--8--8--|


                                                                              
--------------------------------------|--------------------------------------|
--------------------------------------|--------------------------------------|
--------------------------------------|--------------------------------------|
--0--0--0--0--0--0--0--0--0--0--0--0--|--0--0--0--0--0--0--0--0--0--0--0--0--|


                                                                              
--------------------------------------|--------------------------------------|
--------------------------------------|--------------------------------------|
--3--3--3--3--3--3--3--3--3--3--3--3--|--3--3--3--3--3--3--3--3--3--3--3--3--|
--------------------------------------|--------------------------------------|


                                                                              
--------------------------------------|--------------------------------------|
--------------------------------------|--------------------------------------|
--1--1--1--1--1--1--1--1--1--1--1--1--|--1--1--1--1--1--1--1--1--1--1--1--1--|
--------------------------------------|--------------------------------------|


                                                                              
--------------------------------------|--------------------------------------|
--------------------------------------|--------------------------------------|
--------------------------------------|--------------------------------------|
--0--0--0--0--0--0--0--0--0--0--0--0--|--0--0--0--0--0--0--0--0--0--0--0--0--|


                                                                     
----------------------|----------------------|----------------------|
----------------------|----------------------|----------------------|
----------------------|----------------------|----------------------|
--5----5----5----5----|--5----5----5----5----|--5----5----5----5----|


                                                                      
----------------------|----------------------|-----------------------|
----------------------|----------------------|-----------------------|
----------------------|----------------------|-----------------------|
--8----8----8----8----|--5----5----5----5----|--8----8----8----12----|


                                                                           
--------------------------|------------------------|----------------------|
--------------------------|------------------------|----------------------|
--------------------------|------------------------|----------------------|
--10----10----10----10----|--12----12----7----3----|--5----5----5----5----|


                                                                     
----------------------|----------------------|----------------------|
----------------------|----------------------|----------------------|
----------------------|----------------------|----------------------|
--5----5----5----5----|--5----5----5----5----|--8----8----8----8----|


                                                                          
----------------------|-----------------------|--------------------------|
----------------------|-----------------------|--------------------------|
----------------------|-----------------------|--------------------------|
--5----5----5----5----|--8----8----8----12----|--10----10----10----10----|


                                                                
------------------------|--------------------------------------|
------------------------|--------------------------------------|
------------------------|--------------------------------------|
--12----12----7----3----|--5--5--5--5--5--5--5--5--5--5--5--5--|


                                                                              
--------------------------------------|--------------------------------------|
--------------------------------------|--------------------------------------|
--5--5--5--5--5--5--4--4--4-----------|--------------------------------------|
-----------------------------7--7--7--|--8--8--8--8--8--8--8--8--8--8--8--8--|


                                                                              
--------------------------------------|--------------------------------------|
--------------------------------------|--------------------------------------|
--------------------------------------|--------------------------------------|
--7--7--7--7--7--7--0--0--0--0--0--0--|--5--5--5--5--5--5--5--5--5--5--5--5--|


                                                                              
--------------------------------------|--------------------------------------|
--------------------------------------|--------------------------------------|
--5--5--5--5--5--5--4--4--4-----------|--------------------------------------|
-----------------------------7--7--7--|--8--8--8--8--8--8--8--8--8--8--8--8--|


                                                                              
--------------------------------------|--------------------------------------|
--------------------------------------|--------------------------------------|
--------------------------------------|--3--3--3--3--3--3--1--1--1--1--1--1--|
--7--7--7--7--7--7--0--0--0--0--0--0--|--------------------------------------|


                                                                              
--------------------------------------|--------------------------------------|
--------------------------------------|--------------------------------------|
--1--1--1--1--1--1--0--0--0--0--0--0--|--0--0--0--0--0--0--------------------|
--------------------------------------|--------------------5--5--5--5--5--5--|


                                                                              
--------------------------------------|--------------------------------------|
--------------------------------------|--------------------------------------|
--3--3--3--3--3--3--3--3--3--3--3--3--|--3--3--3--3--3--3--1--1--1--1--1--1--|
--------------------------------------|--------------------------------------|


                                                                        
--------------------------------------|--------------------------------|
--------------------------------------|--------------------------------|
--1--1--1--1--1--1--0--0--0--0--0--0--|--------------------------------|
--------------------------------------|--1----1----1----1----1----1----|


                                                                            
--------------------------------------|------------------------------------|
--------------------------------------|------------------------------------|
--------------------------------------|------------------------------------|
--7--7--7--7--7--7--0--0--0--0--0--0--|--5----5--5--5--5--5----5--5--5--5--|


                                                                            
------------------------------------|--------------------------------------|
------------------------------------|--------------------------------------|
------------------------------------|--------------------------------------|
--5----5--5--5--5--5----5--5--5--5--|--1--1--1--1--1--1--8--8--8--7--7--7--|


                                                                            
--------------------------------------|------------------------------------|
--------------------------------------|------------------------------------|
--------------------------------------|------------------------------------|
--3--3--3--3--3--3--8--8--8--7--7--7--|--5----5--5--5--5--5----5--5--5--5--|


                                                                            
------------------------------------|--------------------------------------|
------------------------------------|--------------------------------------|
------------------------------------|--------------------------------------|
--5----5--5--5--5--5----5--5--5--5--|--1--1--1--1--1--1--8--8--8--7--7--7--|


                                                                            
--------------------------------------|------------------------------------|
--------------------------------------|------------------------------------|
--------------------------------------|------------------------------------|
--3--3--3--3--3--3--5--5--5--4--4--4--|--5----5--5--5--5--5----5--5--5--5--|


                                                                            
------------------------------------|--------------------------------------|
------------------------------------|--------------------------------------|
------------------------------------|--------------------------------------|
--5----5--5--5--5--5----5--5--5--5--|--1--1--1--1--1--1--8--8--8--7--7--7--|


                                                                            
--------------------------------------|------------------------------------|
--------------------------------------|------------------------------------|
--------------------------------------|------------------------------------|
--3--3--3--3--3--3--8--8--8--7--7--7--|--5----5--5--5--5--5----5--5--5--5--|


                                                                            
------------------------------------|--------------------------------------|
------------------------------------|--------------------------------------|
------------------------------------|--------------------------------------|
--5----5--5--5--5--5----5--5--5--5--|--1--1--1--1--1--1--8--8--8--7--7--7--|


                                                                              
--------------------------------------|--------------------------------------|
--------------------------------------|--------------------------------------|
--------------------------------------|--------------------------------------|
--3--3--3--3--3--3--5--5--5--4--4--4--|--5--5--5--5--5--5--5--5--5--5--5--5--|


                                                                              
--------------------------------------|--------------------------------------|
--------------------------------------|--------------------------------------|
--------------------------------------|--------------------------------------|
--9--9--9--9--9--9--9--9--9--9--9--9--|--8--8--8--8--8--8--8--8--8--8--8--8--|


                                                                             
-------------------------------------|--------------------------------------|
-------------------------------------|--------------------------------------|
-------------------------------------|--------------------------------------|
--9--9--9--9--9--9--5--5----x--5--5--|--5--5--5--5--5--5--5--5--5--5--5--5--|


                                                                              
--------------------------------------|--------------------------------------|
--------------------------------------|--------------------------------------|
--------------------------------------|--------------------------------------|
--9--9--9--9--9--9--9--9--9--9--9--9--|--8--8--8--8--8--8--8--8--8--8--8--8--|


                                                                              
--------------------------------------|--------------------------------------|
--------------------------------------|--------------------------------------|
--------------------------------------|--------------------------------------|
--9--9--9--9--9--9--9--9--9--9--9--9--|--5--5--5--5--5--5--5--5--5--5--5--5--|


                                                                              
--------------------------------------|--------------------------------------|
--------------------------------------|--------------------------------------|
--------------------------------------|--------------------------------------|
--9--9--9--9--9--9--9--9--9--9--9--9--|--8--8--8--8--8--8--8--8--8--8--8--8--|


                                                                             
-------------------------------------|--------------------------------------|
-------------------------------------|--------------------------------------|
-------------------------------------|--------------------------------------|
--9--9--9--9--9--9--5--5----x--5--5--|--5--5--5--5--5--5--5--5--5--5--5--5--|


                                                                              
--------------------------------------|--------------------------------------|
--------------------------------------|--------------------------------------|
--------------------------------------|--------------------------------------|
--9--9--9--9--9--9--9--9--9--9--9--9--|--8--8--8--8--8--8--8--8--8--8--8--8--|


                                                           
--------------------------------------|------------------||
--------------------------------------|------------------||
--------------------------------------|------------------||
--9--9--9--9--9--9--9--9--9--9--9--9--|------------------||

            
            
Suggest correction
Creating personal tab
Creating personal tab
You can edit any tab online and save it as your Personal.

You can edit, replace or remove any tab part or add personal notes – all changes will be seen only by you.

Personal tabs can be accessed anytime from any device, even offline.
Learn more »
Give kudos to tab author, rate the tab!
1 2 3 4 5
comments
print report bad tab
guest
Wanna post a correction for this tab? Suggest correction