Oops, an error
Loading. Please wait.

Party Talk Tab

version 1
version 1

Whole song

5,528 views 6 this week
no commentswrite comment
1 2 3 4 5
please rate
add to favorites
launch autoscroll
font size
0
reset
how to read this tab
guitar tuner
Autoscroll
slow
fast
+/-
esc
set tempo
stop
Help us to improve Ultimate-Guitar.com Take our survey!
×
Author
Difficulty
novice
Hey this is my first tab so go easy on me. I'm unsure if this is 100% correct
because I tabbed it by ear. Especially the chords.


Chords For this song:


 --x---  |  --5--  |  --x--------x--------x--|
 --8---  |  --7--  |  --5--------7--------5--|
 --0---  |  --7--  |  --6--------6--------6--|
 --9---  |  --x--  |  --7--------7--------7--|
 --10--  |  --x--  |  --x--------x--------x--|
 --x---  |  --x--  |  --x--------x--------x--|




Intro/Chorus:

----10-------------------------------------------10--------------------------------------------|
--------12--10------------------------10-------------12--10------------------------------------|
---------------11~-----9--11~--9--11~-----11--9--------------11~-----9--11~--------------------|
-----------------------------------------------------------------------------------------------|
-----------------------------------------------------------------------------------------------|
-----------------------------------------------------------------------------------------------|

Verse:

-------------------------------------------------------------------------|
----------10---------10---------10~-----------10---------10--------------|
---9--11------9--11------9--11---------9--11------9--11------9--11--9~---|
-------------------------------------------------------------------------|
-------------------------------------------------------------------------|
-------------------------------------------------------------------------|


Solo (The 9 & 11 part on the G string is played in tremolo):

---------------------------------------------------|
-----------------------------------------------10~-|
----9-9-9-9-9-9-9-9--11-11-11-11-11-11-11-11-------|
---------------------------------------------------|
---------------------------------------------------|
---------------------------------------------------|


---9-------------9h10-9-----------------------------|
------12---10~-----------12--10--10--10--12---------|
----------------------------------------------------|
----------------------------------------------------|
----------------------------------------------------|
----------------------------------------------------|


-----------------------------------------------------------------------9---------|
-----------------------------------------------10--10--10--12--12--12-----12-----|
----9-9-9-9-9-9-9-9--11-11-11-11-11-11-11-11-------------------------------------|
---------------------------------------------------------------------------------|
---------------------------------------------------------------------------------|
---------------------------------------------------------------------------------|

----------------------------------------------------|
-----------10---------10----------------------------|
----9--11------9--11------9--11--9~---11------------|
----------------------------------------------------|
----------------------------------------------------|
----------------------------------------------------|

(REPEAT SOLO)





Bass:

-------------------------------------------------------------------|
-------------------------------------------------------------------|
-------------------------------------------------------------------|
-------------------------------------------------------------------|
----------------5--5--5---------------------------5--5--5--4-----5-|
-------3--3--3-----------5--5--5--7--5----3--3--3------------------|
Suggest correction
Give kudos to tab author, rate the tab!
1 2 3 4 5
comments
print report bad tab
guest
You may want to rate the tab now too:
select rating
Please do not post tabs as comments. Select "correction" instead!