Oops, an error
Loading. Please wait.

Booty Man Acoustic Tab

5,554 views 6 this week
no commentswrite comment
1 2 3 4 5
please rate
add to favorites
launch autoscroll
font size
0
reset
how to read this tab
guitar tuner
Tab Pro tools
  • play this tab
  • loop segment
  • change instrument
  • show fretboard
  • metronome
×
Best way to learn
"Booty Man Acoustic"
Autoscroll
slow
fast
+/-
esc
set tempo
stop
Contributor
Difficulty
intermediate
Artist: Craig David
Song: Booty Man (Acoustic)
Standard Tuning
3.16.07
Tabbed by: Oliver Liscano
http://www.myspace.com/olilis

This acoustic version is from his Live In Costa Rica DVD.

Intro
e------------------------------------------------------------|
B-----3-----3------------------------------------------------|
G-------0h2-------0---0-------2---2-------4---4-----2---2----|
D---0-----------0---0-------0---0-------0---0-----0---0------|
A------------------------------------------------------------|
E-0-----------0---------0h2---------2/3---------2------------|
               if you're   …go check all        program

e-----------------------------------------------|
B--------------------------------------3-----3--|
G-----0---0-------2---2----2h4p2p0---0---0h2----|
D---0---0-------0---0---------------------------|
A-----------------------------------------------|
E-0---------0h2---------3----------2------------|
  make you say…         the booty man…

e------------------------------------0--------|
B---3---------3-----3------------------3---3--|
G-----0-0-------0h2------2h4p2p0---0-----0----|
D---------------------------------------------|
A---------------------------------------------|
E-0-------0h2---------3----------2------------|
 click off…          dotcd.com…         international…

e------------------------------------------------|
B---3-------3-------3---3-----3------------------|
G-----0-------0-0---0-0-----0---2-2--------------|
D------------------------------------------------|
A------------------------------------------------|
E-0-----0h2-------3-------2----------------------|
 …national…

Verse 1  x4
e------------------------------------------------|
B------------------------------------------------|
G-----0---0-------2---2-------4---4-----2---2----|
D---0---0-------0---0-------0---0-----0---0------|
A------------------------------------------------|
E-0---------0h2---------2/3---------2------------|

Chorus
e-----------------------3---3--------------------|
B---------------3-------3-3-----3-----3----------|
G-----0---0-------2-2---0---------0h2------------|
D---0---0----------------------------------------|
A------------------------------------------------|
E-0---------0h2-------3-------2------------------|

e-----0x---------------------------0--------------|
B--------3-----3---3-----------------3---3--------|
G---0--------0---0-----2h4p2p0---------0----------|
D--------------------------------0----------------|
A-------------------------------------------------|
E-0--------2---------3---------2------------------|


e-----------------------------------0------------|
B---3-----3---3-----3-----------------3---3------|
G-----0h2-------0h2-----2h4p2p0---------0--------|
D---------------------------------0--------------|
A------------------------------------------------|
E-0---------2---------3---------2----------------|

e-------------------------------0------------|
B---3---3---3---3-----------------3---3------|
G-----0-------0-----2h4p2p0---------0--------|
D-----------------------------0--------------|
A--------------------------------------------|
E-0-------2-------3---------2----------------|

Verse 2 x4
e------------------------------------------------|
B------------------------------------------------|
G-----0---0-------2---2-------4---4-----2---2----|
D---0---0-------0---0-------0---0-----0---0------|
A------------------------------------------------|
E-0---------0h2---------2/3---------2------------|

Chorus
e-----0-----------0----------------------0-----0-|
B-------3---3-------3---3------------------3-----|
G---0-----0-----0-----0------2h4p2p0---0-----0---|
D------------------------------------------------|
A------------------------------------------------|
E-0-----------2-----------3----------2-----------|

e-------------------------------0-----0----------|
B---0---0---3---3-----------------3--------------|
G-----0-------0-----2h4p2p0---0-----0------------|
D------------------------------------------------|
A------------------------------------------------|
E-0-------2-------3---------2--------------------|

e-------------------------------0-----0------|
B---3---3---3---3-----------------3----------|
G-----0-------0-----2h4p2p0---0-----0--------|
D--------------------------------------------|
A--------------------------------------------|
E-0-------2-------3---------2----------------|

e-------------0-------------------0--------------|
B---3---3-------3-3-----------------3------------|
G-----0-----0---------2h4p2p0---0----------------|
D------------------------------------------------|
A------------------------------------------------|
E-0-------2---------3---------2------------------|

Bridge
e------------------------------------------------|
B------------------------------------------------|
G-----0---0-------2---2-------4---4-----2---2----|
D---0---0-------0---0-------0---0-----0---0------|
A------------------------------------------------|
E-0---------0h2---------2/3---------2------------|

X2
e------------------------------------------------|
B----------------------------------------3-----3-|
G-----0---0-------2---2-------4---4----0---0h2---|
D---0---0-------0---0-------0---0----------------|
A------------------------------------------------|
E-0---------0h2---------2/3---------2------------|

e------------------------------------------------|
B------------------------------------------------|
G-----0---0-------2---2-------4---4-----2---2----|
D---0---0-------0---0-------0---0-----0---0------|
A------------------------------------------------|
E-0---------0h2---------2/3---------2------------|

Chorus
e---0-------------------------0x-----------------|
B-----3-----3---3----------------3---3-----------|
G-------0-----0-----2h4p2p0--------0-------------|
D------------------------------------------------|
A------------------------------------------------|
E-0-------2-------3---------2--------------------|

e------------------------------------------------|
B---3---3---3-----------------3-3---3------------|
G-----0-------2-2---2h4p2p0-------2--------------|
D------------------------------------------------|
A------------------------------------------------|
E-0-------2-------3---------2--------------------|

e-------------------------------0----------------|
B---3-------3---------------------3---3----------|
G-----0-0-----0-2---2h4p2p0---------0------------|
D-----------------------------0------------------|
A------------------------------------------------|
E-0-------2-------3---------2--------------------|

e------------------------------------------------|
B---3-------------------------3------------------|
G-----0---2-2-2---2h4p2p0---0---2-2--------------|
D------------------------------------------------|
A------------------------------------------------|
E-0-----2-------3---------2----------------------|

e-----------------------------------0------------|
B-----0---------3---------------------3---3------|
G---0---0-0---0---2-2---2h4p2p0---0-----0--------|
D------------------------------------------------|
A------------------------------------------------|
E-0---------2---------3---------2----------------|

e-----------------------------------0------------|
B-----3---------3---3-----------------3---3------|
G---0---0-0---0---2-----2h4p2p0---0-----0--------|
D------------------------------------------------|
A------------------------------------------------|
E-0---------2---------3---------2----------------|

e----------------------------------0-------------|
B-----3--------3---3-----------------3---3-------|
G---0---0-0----0-0-----2h4p2p0---0-----0---------|
D------------------------------------------------|
A------------------------------------------------|
E-0---------2--------3---------2-----------------|

e------------------------------------------------|
B-----3---------3---3---------------3-----3------|
G---0---0-0---0---2-----2h4p2p0---0---2p0--------|
D------------------------------------------------|
A------------------------------------------------|
E-0---------2---------3---------2----------------|

Chorus
e-----2-----------0------------------------------|
B-------3---3-------3---3---------------3-----3--|
G---0-----0-----0-----0-----2h4p2p0---0---2p0----|
D------------------------------------------------|
A------------------------------------------------|
E-0-----------2-----------3---------2------------|

e---------------------------------0--------------|
B-----3-----------------------------3---3--------|
G---0---0-0---2-2-2---2h4p2p0---0-----0----------|
D------------------------------------------------|
A------------------------------------------------|
E-0---------2-------3---------2------------------|

e------------------------------------------------|
B-----3---------3-------------------3---3--------|
G---0---0-0---2---2-2---2h4p2p0---0---0----------|
D------------------------------------------------|
A------------------------------------------------|
E-0---------2---------3---------2----------------|

e------2-------------0-------------------------------0----------|
B--------3-------------3---------------------------3---3--------|
G---0------0-0---0-2-----2p0---0-0-2h4p2p0-----0-2-------2-0----|
D---------------------------------------------------------------|
A---------------------------------------------------------------|
E-0------------2-------------3-------------0-2------------------|

e-------------0-----------0----------------------|
B----------------0--------0----------------------|
G----------2--------2-----1----------------------|
D-------2--------------2--2----------------------|
A----2--------------------2----------------------|
E-0----------------------------------------------|
comments
We did not receive enough feedback on this tab! Please rate:
print report bad tab
1 2 3 4 5
I want to post or [tab]
guest
You may want to rate the tab now too:
select rating
Please do not post tabs as comments. Select "correction" instead!