Oops, an error
Loading. Please wait.

Insomnia Tab

version 1
version 1

Acoustic

Whole song

11,922 views 3 this week
no commentswrite comment
1 2 3 4 5
please rate
add to favorites
launch autoscroll
font size
0
reset
how to read this tab
guitar tuner
Autoscroll
slow
fast
+/-
esc
set tempo
stop
Help us to improve Ultimate-Guitar.com Take our survey!
×
Capo
5th fret
Capo on 5th Fret.


e|-----0~-------------------------------|
B|--------3-3-3-3-------0~--1-1-1-1h3p1-|
G|----2---0-0-0-0------0----2-2-2-------|
D|---3----0-0-0-0-----2-----2-2-2-------|
A|--3-----2-2-2-2----2------0-0-0-------|
E|-1------3-3-3-3---0-------------------|

e|-----0~-------------------------3----|
B|--------3-3-3-3-------0~-0h1-11-1-1--|
G|----2---0-0-0-0------0-0-2---22---2--|
D|---3----0-0-0-0-----2----2---22---2--|
A|--3-----2-2-2-2----2-----0---00------|
E|-1------3-3-3-3---0------------------|

Repeat or mix it around.

*First tab.
Suggest correction
Give kudos to tab author, rate the tab!
1 2 3 4 5
comments
print report bad tab
guest
You may want to rate the tab now too:
select rating
Please do not post tabs as comments. Select "correction" instead!