Oops, an error
Loading. Please wait.

Insomnia Tab

version 1
version 1

Whole song

13,526 views 1 this week
no commentswrite comment
1 2 3 4 5
please rate
add to favorites
launch autoscroll
font size
0
reset
how to read this tab
guitar tuner
Autoscroll
slow
fast
+/-
esc
set tempo
stop
Help us to improve Ultimate-Guitar.com Take our survey!
×
Author
Standard tuning EADGBe
As seen on http://www.youtube.com/watch?v=UUBtfS-Ntzg

Intro
|-----------------------------------------------------------------------|
|-----------------------------------------------------------------------|
|-----------------------------------------------------------8-----8-----|
|------9-----9----------11------11----------8-----8-------8-----8-----8-|
|----9-----9-----9---11------11------11---8-----8-----8-6-----6-----6---|
|--7-----7-----7---9-------9-------9----6-----6-----6-------------------|

Verse (palm muting)
|---------------------------------------------------------------------|
|---------------------------------------------------------------------|
|---------------------------------------------------------------------|
|---------------------------------------------------------------------|   X2
|--------------------------------------------------6-6-6-6-6-6-6-6----|
|--7-7-7-7-7-7-7-7-9-9-9-9-9-9-9-9-6-6-6-6-6-6-6-6--------------------|

|---------------------------------------------------------------------|
|---------------------------------------------------------------------|
|--------------------------------------------------------8-------8----|
|------9-------9-------11-------11-------8-------8-------8-------8----| X2
|------9-------9-------11-------11-------8-------8---6-6-6-6-6-6-6-6--|
|--7-7-7-7-7-7-7-7-9-9-9--9-9-9-9--9-6-6-6-6-6-6-6-6------------------|


Chorus
|--/11-13-14-14-14-14-14-13-11-13----11-13-13-13-13-14-13-13-11-|
|---------------------------------14----------------------------|
|---------------------------------------------------------------|
|---------------------------------------------------------------|
|---------------------------------------------------------------|
|---------------------------------------------------------------|

|--11-13-14-/16-14-14-14-13-\11-13----11-13-13-13-13-14-13-13-11-|
|----------------------------------14----------------------------|
|----------------------------------------------------------------|
|----------------------------------------------------------------|
|----------------------------------------------------------------|
|----------------------------------------------------------------|

|--/11-11-13-14-/16-14----18-16----------13-14-13----16-14-|
|----------------------14-------14-14-16----------14-------|
|----------------------------------------------------------|
|----------------------------------------------------------|
|----------------------------------------------------------|
|----------------------------------------------------------|

|--/11-11-13-14-/16-14----18-16----------13-14-13----16-14-13-11-13-14-|
|----------------------14-------14-14-16----------14-------------------|
|----------------------------------------------------------------------|
|----------------------------------------------------------------------|
|----------------------------------------------------------------------|
|----------------------------------------------------------------------|
Suggest correction
Give kudos to tab author, rate the tab!
1 2 3 4 5
comments
print report bad tab
guest
You may want to rate the tab now too:
select rating
Please do not post tabs as comments. Select "correction" instead!