Oops, an error
Loading. Please wait.

Officially Yours Tab

version 1
version 1

Whole song

14,578 views 1 this week
no commentswrite comment
1 2 3 4 5
please rate
add to favorites
launch autoscroll
font size
0
reset
how to read this tab
guitar tuner
Tab Pro tools
  • play this tab
  • loop segment
  • change instrument
  • show fretboard
  • metronome
×
Best way to learn
"Officially Yours"
Autoscroll
slow
fast
+/-
esc
set tempo
stop
Difficulty
novice
Tabbed by: Earl John D. Mission
Email: ejski_00@yahoo.com
This song is dedicated 2 Kaycee, ma bestfrend..hope u like it!! :D

**Plucking**
This may not be perfect, bt i tried..
Tuning: Standard

Intro:
e|----3-----3-----3----3--------------3------3-----3--3---3----------------|
B|----3-----3-----1----0---1-1/3------3------3-----1--1---0----------------|
G|----0-----------0----0---2-2/4------0------------0------0----------------|
D|-------------------------------------------------------------------------|
A|--3-----2----0--------------------3------2-----0-------------------------|
E|-------------------3------------------------------------3----------------|

Verse I & 2:
Play this part 3X in every verse        
e|----3------3------3------3---------|------3-----3------3--3----3-3-------|
B|----3------3------1------0---1-1/3-|------3-----3------1--1----0-0-------|
G|----0-------------0------0---2-2/4-|------0------------0-------0-0-------|
D|-----------------------------------|-------------------------------------|
A|--3-----2------0-------------------|-------------------------------------|
E|----------------------3------------|---3------2-----0--------3---3-------|

Bridge:
e|---2-2-2----3-3-3----2-2-2-----3-3------3-3----|
B|---3-3-3----1-1-1----3-3-3-----3-3------3-3----|
G|---2-2------0-0------2-2-------0-0------2-2----|
D|--------------------------------------0--------|
A|-2--------0--------2---------3-----------------|
E|-----------------------------------------------|

Chorus: (this part 2 simple..)
G-G-Dsus-Dsus-C9-C9-Dsus
G-G-Dsus-Dsus-C9-C9-Dsus
Em-Em-Dsus-Dsus-C9-C9-Dsus-D

(Intro)

Bridge:
C9-C9-Cm-Cm-Bm7-Bm7-Em-Em
C9-C9-Cm-Cm-Bm7-Bm7-Em-Em
Am7-Am7-Am7-Am7-C-C-Dsus-D

e|---7-7-7----5-5-3-2-3--|
B|---8-8-8----3-3-3-3-3--|
G|---7-7-7---------------|
D|-0--------0-----0-0-0--| Play 2x
A|-----------------------|
E|-----------------------|

Chorus 2:
Em-Em-D-D-C9-C9-D-D
G-G-Dsus-Dsus-C9-C9-Dsus
G-G-Dsus-Dsus-C9-C9-Dsus
Em-Em-Dsus-Dsus-C9-C9-Dsus-D

Ending:
Play Intro until the end of the song..
That is all..
comments
We did not receive enough feedback on this tab! Please rate:
print report bad tab
1 2 3 4 5
I want to post or [tab]
guest
You may want to rate the tab now too:
select rating
Please do not post tabs as comments. Select "correction" instead!