Oops, an error
Loading. Please wait.

Officially Yours Tab

version 2
version 2

Whole song

8,077 views 12 this week
no commentswrite comment
1 2 3 4 5
accurate
x 5
add to favorites
launch autoscroll
font size
0
reset
how to read this tab
guitar tuner
Tab Pro tools
  • play this tab
  • loop segment
  • change instrument
  • show fretboard
  • metronome
×
Best way to learn
"Officially Yours"
Autoscroll
slow
fast
+/-
esc
set tempo
stop
Contributor
Craig David - OFFICIALLY YOURS tabs by saxofonista90 (my first tabs ever;)

[INTRO]:
Oh yeah yes
La da day, la da day
La da da da da oh

|--3--2--3--3---3------------------------|
|--3--3--3--1---1--0--1-3----------------|
|--0--0--0--0---0--0--2-4----------------|
|-----2--2-------------------------------|
|3------------0--------------------------|
|------------------3---------------------|

|--3--2--3--3---3------------------------|
|--3--3--3--1---1-0----------------------|
|--0--0--0--0---0-0----------------------|
|-----2--2-------------------------------|
|3------------0--------------------------|
|-----------------3----------------------|

[VERSE]1:
Thinkin' how the story goes
You're helpless and I'm wishin'
Put the film inside my mind
But there's a big scene that I'm missin'
As I re-read my lines
I think I said this, I should've said that
Did you edit me out of your mind
'Cos in a flash you had disappeared, gone (gone)

|--3--2--3--3---3------------------------|
|--3--3--3--1---1--0--1-3----------------|
|--0--0--0--0---0--0--2-4----------------|
|-----2--2-------------------------------|
|3------------0--------------------------|
|------------------3---------------------|

|--3--2--3--3---3------------------------|
|--3--3--3--1---1--0--1-0----------------|
|--0--0--0--0---0--0--0-0----------------|
|-----2--2-------------------------------|
|3------------0--------------------------|
|------------------3----3----------------|

[x4] 

[BRIDGE]:
Before the curtain falls
And we act this out again
Maybe I should risk it all and state

|--2--0---0--0---0--0---0--0-------------|
|--3--1---1--1---1--1---1--1-------------|
|--2--0---0--0---0--0---0--0-------------|
|--4--2---2--2---2--2---2--2-------------|
|2------0------0------0------------------|
|----------------------------------------|

|--2--0---------3--3--2--3---------------|
|--3--1---------3--3--3--3---------------|
|--2--0---------0--2--2--2---------------|
|--4--2------------4--4--4---------------|
|2----0--0-2-3---------------------------|
|----------------------------------------|

[CHORUS]:

That I'm officially going on the record
To say I'm in love with you
I'm officially everything you hope that I would be
This time I'll tell the truth

|--3--3--3--3---3--2--3--3---3--3--3--3---3--2--3-----|
|--3--3--3--3---3--3--3--3---3--3--3--3---3--3--3-----|
|--0--2--2--0---0--2--2--2---0--2--2--0---0--2--2-----|
|-----0-----2---2--4--4--4------0-----2---2--4--4-----|
|-------------3-------------------------3-------------|
|3-------------------------3--------------------------|


I'm officially wrong I know, For letting you..

chord:|--2--|
      |--3--|
      |--0--|
      |--2--|
      |--2--|
      |--0--|

..go the way I did, Unconditionally..

chord:|--3--|
      |--3--|
      |--2--|
      |--4--|
      |-----|
      |-----|


..more, than I ever..

chord:|--3--|
      |--3--|
      |--0--|
      |--2--|
      |--3--|
      |-----|

was before, I'm officially..

chord:|--7--|
      |--5--|
      |--5--|
      |-----|
      |--5--|
      |-----|


[INTRO]:
...yours
La da day, la da day
La da da da da oh

[VERSE]2:
Travellin' down this road again
Gotta make a few decisions
Don't want you to feel this hurt again
That's why I'm hopin' that you'll listen
If you let me press rewind
I'll rehearse every word I should have said
'Cos girl I'm ready to make things right
Here on this stage so we can move on (on)

[BRIDGE]
And before the curtain falls
And we act this out again
Missin' pieces I'll resolve so stay

[CHORUS]
I'm officially going on the record
To say I'm in love with you
I'm officially everything you hope that I would be
This time I'll tell the truth
I'm officially wrong I know
For letting you go the way I did
Unconditionally more than I ever was before

[BRIDGE2]

C                    c
Things I should have said
          h7            e
Like I appreciate the time that I spend with you
   C                   c                  h7
Inspire me with the smile I put on your pretty face
      e                      a7
My world comes alive, now I know (now I know it babe)
This time I'm not 

letting go, 'Cos I'm officially yours (oh oh)
|-----------3--------7-----|
|-----------3--3-----5-----|
|---------0-0----0---5-----|
|-------2------------------|
|0-2-3-------------3-5-----|
|--------------------------|


[Chorus]
Officially everything you hope that I would be
This time I'll tell the truth
I'm officially wrong I know
For letting you go the way I did
Unconditionally more than I ever was before
I'm officially going on the record
To say I'm in love with you
I'm officially everything you hope that I would be
This time I'll tell the truth
I'm officially wrong I know
For letting you go the way I did
Unconditionally more than I ever was before

[Outro] (tabs from [VERSE])
Girl I'm unconditionally yours (oh yeah)
Officially yours, your man (La da day, la da day, la da day)
Girl I'm unconditionally yours (La da da da da oh)
Officially yours, I am

Girl I'm unconditionally yours (listen what I'm tryna say)
Officially yours, your man (oh oh)
Girl I'm unconditionally yours
Officially yours, I am
comments
print report bad tab
I want to post or [tab]
guest
You may want to rate the tab now too:
select rating
Please do not post tabs as comments. Select "correction" instead!