Oops, an error
Loading. Please wait.

Unbelievable Tab

version 2
version 2

Whole song

3,897 views 9 this week
no commentswrite comment
1 2 3 4 5
excellent!
x 1
add to favorites
launch autoscroll
font size
0
reset
how to read this tab
guitar tuner
Tab Pro tools
  • play this tab
  • loop segment
  • change instrument
  • show fretboard
  • metronome
Autoscroll
slow
fast
+/-
esc
set tempo
stop
Contributor
Difficulty
novice
Song: Unbelievable
Artist: Craig David
Album: The Story Goes
Standard Tuning with capo 3rd
Tab by: Michel Sen (michelsen_tse@hotmail.com)

Verse 1
3x
e-------0---------0---------0---------0--------------------------|
B----------------------------------------------------------------|
G-----2---------2---------1---------2----------------------------|
D---2---------2---------2-------0-2------------------------------|
A-0--------------------------------------------------------------|
E-----------2---------0------------------------------------------|

e------------------------------------------------------------------|
B------------------------------------------------------------------|
G-1/2-1-2----2-4-6-------------------------------------------------|
D-3/4-2-4----2-6-7-------------------------------------------------|
A------------------------------------------------------------------|
E------------------------------------------------------------------|

Chorus
3x
e-------0----------0----------0----------0---------------------|
B------------------------------------------0-------------------|
G-----2---2------2---2------1---1------2-----2-----------------|
D---2----------2----------2--------0-2---------2---------------|
A-0------------------------------------------------------------|
E------------2----------0--------------------------------------|

e-------0----------0----------0----------0---------------------|
B--------------------------------------------------------------|
G-----2---2------2---2------1---1------2-----------------------|
D---2----------2----------2--------0-2-------------------------|
A-0------------------------------------------------------------|
E------------2----------0--------------------------------------|

e----------------------------------------------------------------|
B----------------------------------------------------------------|
G-1/2-1-2--------------------------------------------------------|
D-3/4-2-4--------------------------------------------------------|
A----------------------------------------------------------------|
E----------------------------------------------------------------|

Verse 2
3x
e-----------------------------0--------------------------------|
B-------2----------2-------------------0-3---------------------|
G-----2---2------2---2------1---1----2-----2-------------------|
D----------------------------------2---------------------------|
A-0------------------------------------------------------------|
E------------2----------0--------------------------------------|

e------------------------------------------------------------------|
B------------------------------------------------------------------|
G-1/2-1-2----2-4-6-------------------------------------------------|
D-3/4-2-4----2-6-7-------------------------------------------------|
A------------------------------------------------------------------|
E------------------------------------------------------------------|

Chorus
3x
e-------0----------0----------0----------0---------------------|
B------------------------------------------0-------------------|
G-----2---2------2---2------1---1------2-----2-----------------|
D---2----------2----------2--------0-2---------2---------------|
A-0------------------------------------------------------------|
E------------2----------0--------------------------------------|

e-------0----------0----------0----------0---------------------|
B--------------------------------------------------------------|
G-----2---2------2---2------1---1------2-----------------------|
D---2----------2----------2--------0-2-------------------------|
A-0------------------------------------------------------------|
E------------2----------0--------------------------------------|

e----------------------------------------------------------------|
B----------------------------------------------------------------|
G-1/2-1-2--------------------------------------------------------|
D-3/4-2-4--------------------------------------------------------|
A----------------------------------------------------------------|
E----------------------------------------------------------------|

Bridge
e-----------------0-----0-----0-----------------------------------|
B-3-----3-----3-----0-----0-------2-----2-----2-------0-3-----3---|
G---2-----2-----2-----2-----2---2---2-----2-----2---2-----2-----2-|
D-----2-----2-------------------------2-----2-----2---------2-----|
A-----------------------------------------------------------------|
E-----------------------------------------------------------------|

e-----------------0----------------------------------------------|
B-3-----3-----3--------------------------------------------------|
G---2-----2-----2------------------------------------------------|
D-----2-----2----------------------------------------------------|
A----------------------------------------------------------------|
E----------------------------------------------------------------|

Guitar 1
2x
e-------0----------0----------0----------0---------------------|
B------------------------------------------0-------------------|
G-----2---2------2---2------1---1------2-----2-----------------|
D---2----------2----------2--------0-2---------2---------------|
A-0------------------------------------------------------------|
E------------2----------0--------------------------------------|

Guitar 2
e---------5-5--5-5--5-5-4---1/2-0-------0------------------------|
B---------------------------------2---2--------------------------|
G----------------------------------------------------------------|
D----------------------------------------------------------------|
A----------------------------------------------------------------|
E----------------------------------------------------------------|

e---------5-5--5-5----5-5/7----------------------------------------|
B-------2-----------5-----------------2-3--------------------------|
G------------------------------------------------------------------|
D------------------------------------------------------------------|
A------------------------------------------------------------------|
E------------------------------------------------------------------|

Chorus
3x
e-------0----------0----------0----------0---------------------|
B------------------------------------------0-------------------|
G-----2---2------2---2------1---1------2-----2-----------------|
D---2----------2----------2--------0-2---------2---------------|
A-0------------------------------------------------------------|
E------------2----------0--------------------------------------|

e-------0----------0----------0----------0---------------------|
B--------------------------------------------------------------|
G-----2---2------2---2------1---1------2-----------------------|
D---2----------2----------2--------0-2-------------------------|
A-0------------------------------------------------------------|
E------------2----------0--------------------------------------|

e------------------------------------------------------------------|
B------------------------------------------------------------------|
G-1/2-0-0----2-4-6-------------------------------------------------|
D-3/4-2-2----2-6-7-------------------------------------------------|
A------------------------------------------------------------------|
E------------------------------------------------------------------|


~the end~
comments
We did not receive enough feedback on this tab! Please rate:
print report bad tab
1 2 3 4 5
I want to post or [tab]
guest
You may want to rate the tab now too:
select rating
Please do not post tabs as comments. Select "correction" instead!