Oops, an error
Loading. Please wait.

Walking Away Bass Tab

4,670 views 1 this week
2 commentsread comments
1 2 3 4 5
x 3
add to favorites
launch autoscroll
font size
0
reset
guitar tuner
Autoscroll
slow
fast
+/-
esc
set tempo
stop
Help us to improve Ultimate-Guitar.com Take our survey!
×
Author
Always use this site to get my tabs from, so thought it was bout time i gave one back!! 
is my first, so might be mistakes but don't think so pretty straight forward!

The rythem is easiest counted in Eight quavers(Quater notes) watch the rythem as 6th 
feels sycapated.

Also listen out for  tuning on G and D strings.

Any comments would be much appreciated!

Tuning standard (EADG)

INTRO- After Guitar intro (With pick up)
G|--------------------------0--0-0---|
D|-------------------3--3-3----------|
A|-----------5--5-5------------------|
E|-345--5-5--------------------------|

(IM WALKING AWAY)
G|-------------------------0--0-0--|
D|----------------23--3-3----------|  (Repeat all the way through)
A|---------5--5-5------------------|
E|-5--5-5--------------------------|

Thanks 2thursw
Suggest correction
Give kudos to tab author, rate the tab!
1 2 3 4 5
comments
print report bad tab
2 comments total.
0 reply
WibbleWobble 1,835 Jul 29, 2011 06:41 PM

beautiful song to put a bit of freestyle to nice tab mam

0 reply
christopher.and 10 Dec 12, 2013 04:51 PM

Most of this tab sounds right to me except for the G notes at the end of both parts. Those notes are played an octave lower.

G|--------------------------------------|
D|-------------------3--3-3-------------|
A|-----------5--5-5---------------------|
E|-345--5-5-----------------3--3-3------|

G|------------------------------------|
D|----------------23--3-3-------------|
A|---------5--5-5---------------------|
E|-5--5-5------------------3--3-3-----|

guest
You may want to rate the tab now too:
select rating
Wanna post a correction for this tab? Suggest correction