Oops, an error
Loading. Please wait.

World Filled With Love Tab

997 views 1 this week
no commentswrite comment
1 2 3 4 5
3 more votes to show rating
add to favorites
launch autoscroll
font size
0
reset
how to read this tab
guitar tuner
Autoscroll
slow
fast
+/-
esc
set tempo
stop
Help us to improve Ultimate-Guitar.com Take our survey!
×
Author
My very first tab^^, this song is quite easy but cool.
  Intro                                             Dm     Fm
E|-----------------------------------------1---------1-----1------|
B|---------------------------------------1---1-------3-----1------|
G|---0---0---0---0---0---0---0---0-----2-------2-----2-----1------|
D|-----2-------2-------2-------2-----3---------------0-----2------|
A|-3-------2-------0---------------------------------------2------|
E|-------------------------3-------1-----------------------1------|

Verse
E|---------------------------------|
B|---------------------------------|
G|-----------------------0-0-0-----|  X4
D|---0---0---0---0-------0-2-0-----|
A|-----2-------2---0-0-3-------3-2-|
E|-3-------3-----------------------|


Pre Chorus
   C    C7   F    Fm
E|-0----0----1----1----------|
B|-1----1----1----1----------|
G|-0----3----2----1----------|
D|-2----2----3----2----------|
A|-3----3----3----2------3h5-|
E|-0----0----1----1--3h5-----|

Chorus
   C    C/B  Am   F    C    C/B  Am   F    Fm
E|-0----0----0----1----0----0----0----1----1---|
B|-1----1----1----1----1----1----1----1----1---|
G|-0----0----2----2----0----0----2----2----1---|
D|-2----2----2----3----2----2----2----3----3---|
A|-3----2----0----3----3----2----0----3----3---|
E|-0--------------1----0--------------1----1---|

Music break 
E|-0------0----1----1--|
B|-1h3----0----1----1--|
G|-0------0----2----1--|
D|-2------2----3----3--|
A|-3------3----3----3--|
E|-0------0----1----1--|

This tab I made is based on what I listen from the live version. 
Suggest correction
Give kudos to tab author, rate the tab!
1 2 3 4 5
comments
print report bad tab
guest
You may want to rate the tab now too:
select rating
Wanna post a correction for this tab? Suggest correction