Oops, an error
Loading. Please wait.

Home chords

43 views 3 this week
no commentswrite comment
1 2 3 4 5
3 more votes to show rating
add to favorites
×
Save as Personal and add changes to this tab that will be seen only by you. Learn more ›
×
You can save this tab as Personal to edit and correct it or add notes. All changes will be seen only by you. Learn more »
launch autoscroll
font size
0
reset
transpose
0
reset
simplify chords
display chords
guitar tuner
edit
Autoscroll
slow
fast
+/-
esc
set tempo
stop
Strumming
There is no strumming pattern for this song yet. and get +5 IQ
CRAIG GALLAGHER - HOME

CAPO - 4
TUNING - Open D - DADF#Ad

[Chords]
D:      000000
Bm:     020100
G:      550500
D6:     024004
Em:     220100

[Intro]
d |----------------------------------------------------------------|
A |--------------------------------------------0-----------0-------|
F#|--------------------------------0h1---------1-----------1--p0---|
D |--------2/4\2------p0---2--p0---0h0---------0-----------0-------| x2
A |------0-------------------------0h2---------2-----------2--p0---|
D |0---------------------------------------------------------------|
   1 e + a 2 e + a 3 e + a 4 e + a 1 e + a 2 e + a 3 e + a 4 e + a

[Verse 1]
    D            G
I'm going, too soon
    D           G
To find, find him
        D         G
And how long, we had
    D                 G
And I could make this last

[Chorus 1]
              D   Bm D
In this home again
        G                                D  Bm D
Yeah, I wish you were here in this home again
        G                           D  Bm D
Oh, and I want you near this home again
        G                                D  Bm D
Yeah, I wish you were here in this home again

[Verse 2]
D             G
Loved, not lost
   D           G
In times we fought
   D            G
To stay, right here
   D                    G
And ooh, well I miss you dear

[Chorus 2]
              D   Bm D
In this home again
        G                                D  Bm D
Yeah, I wish you were here in this home again
        G                           D  Bm D
Oh, and I want you near this home again
        G                                D  Bm D
Yeah, I wish you were here in this home again

[Pre-Bridge]
d |-0-------0---0---0-------0---0---0-------0---0---0---0---0---0--|
A |-0-------0---0---0-------0---0---0-------0---0---0---0---0---0--|
F#|-0-------0---0---0-------0---0---0-------0---0---0---0---0---0--|
D |-4-------4---4---4--\2---2---2---2-------2---2---2---2---2---2--|
A |-5-------5---5---5---0---0---0---0-------0---0---0---0---0---0--|
D |-0-------0---0---0---0---0---0---0-------0---0---0---0---0---0--|
    1   e   +   a   2   e   +   a   3   e   +   a   4   e   +   a

[Bridge]
D6                Em
and I was dreaming, and now we're 17
D                                G
I was holding on to you, you were holding on to me
D6                         Em
But if I lay here, and if I lie on this ground
     D                           G
Will you stay with me, and will you be around

[Chorus 3]
              D   Bm D
In this home again
        G                                D  Bm D
Yeah, I wish you were here in this home again
        G                           D  Bm D
Oh, and I want you near this home again
        G                                D  Bm D
Yeah, I wish you were here in this home again

              D   Bm D
In this home again
        G                                D  Bm D
Yeah, I wish you were here in this home again
        G                           D  Bm D
Oh, and I want you near this home again
        G                                D  Bm D
Yeah, I wish you were here in this home again
              G
In this home again

[Outro]
d |----------------------------------------------------------------|
A |--------------------------------------------0-----------0-------|
F#|--------------------------------0h1---------1-----------1--p0---|
D |--------2/4\2------p0---2--p0---0h0---------0-----------0-------| x2
A |------0-------------------------0h2---------2-----------2--p0---|
D |0---------------------------------------------------------------|
   1 e + a 2 e + a 3 e + a 4 e + a 1 e + a 2 e + a 3 e + a 4 e + a

d |------0------------------------|
A |-----0-------------------------|
F#|----0--------------------------|
D |---0---------------------------|
A |--0----------------------------|
D |-0-----------------------------|

************************************

| h   Hammer-on
| p   Pull-off
| /   Slide up
| \   Slide down

************************************

            
            
Suggest correction
Creating personal tab
Creating personal tab
You can edit any tab online and save it as your Personal.

You can edit, replace or remove any tab part or add personal notes – all changes will be seen only by you.

Personal tabs can be accessed anytime from any device, even offline.
Learn more »
Give kudos to tab author, rate the tab!
1 2 3 4 5
comments
print report bad tab
guest
You may want to rate the tab now too:
select rating
Wanna post a correction for this tab? Suggest correction