Oops, an error
Loading. Please wait.

Home tab

28 views 1 this week
1 commentread comment
1 2 3 4 5
2 more votes to show rating
add to favorites
×
Save as Personal and add changes to this tab that will be seen only by you. Learn more ›
×
You can save this tab as Personal to edit and correct it or add notes. All changes will be seen only by you. Learn more »
launch autoscroll
font size
0
reset
how to read this tab
guitar tuner
edit
Autoscroll
slow
fast
+/-
esc
set tempo
stop
About this tab version
This tab shows the guitar part in open D tuning with a capo of fret 4. Was this info helpful? Yes No
Home – Craig Gallagher
Tabbed by: WolfbainFox
Email: thomasgreene101@yahoo.com

Tuning: DADF#AD [Open D Tuning]
Capo 4

Chords: This shows all the chords used in the song
      D    D/F#  G/D  Gadd9   D  Dadd11  Bm  A7sus4
 D|---0-----------0-----0-----7-----5----0-----0---|
 A|---0-----0-----0-----0-----0-----0----0-----0---|
F#|---0-----0-----1-----5-----0-----0----5-----1---|
 D|---0-----0-----0-----5-----7-----5----4-----2---|
 A|---0-----x-----2-----x-----0-----0----2-----0---|
 D|---0-----5-----0-----5-----0-----0--------------|

[Intro]
        Acoustic Guitar [0:00]
 D|-------------------------0-----0-------------------------------0-------0---0---|
 A|-------------------------0-----0--0-0-0---0--------------------0-----0-0-0-0---|
F#|-------------------------1--1--1--1-1-1------------------------1--1--1-1-1-1---|
 D|------2h4p2--0--0h2------0--0--0--0-0-0-----2h4p2--0--0h2------0--0--0---------|
 A|-------------0--0---2-------2-----2-2--------------0--0---2-------2------------|
 D|---0----------------0--------------------0----------------0--------------------|
                *fingerstyle guitar, use thumb for strumming

[Verse 1]
        Acoustic Guitar [0:12]
 D|-----------------------------------------------------------|
 A|--------------------0-------------------------------0------|
F#|----------0---0---------0---0-----------------------0--0---|
 D|----------0---0---------0---0---------0---0---------0--0---|
 A|----------0---0---------x---x---------0---0----------------|
 D|---0-------------5----------5--0----------0--5-------------|

        Acoustic Guitar [0:24]
 D|-----------------------------------------------------------|
 A|------0-------------0-------0---------0--------------------|
F#|------0---0------0--0---0---0---------0---0---------0--0---|
 D|----------0---0--0------0---0---------0---0---------0--0---|
 A|----------0---0--x------x-----------------0------------x---|
 D|---0----------0--5------5------0----------0--5---------5---|

[Chorus 1]
        Acoustic Guitar [0:36]
 D|---------------------------------------------------------------------------------------|
 A|------------0---------------------------0--------------------------0-------------------|
F#|------------0-----------0---0-----------0-----------0--0-----------0-----------0---0---|
 D|------0---0-----0-------0---0-----0---0-----0-------0--0-----0---0-----0-------0---0---|
 A|------0h2-0-----0-------x---x-----0h2-0-----0----------------0h2-0-----0-------x---x---|
 D|---0------0---0---5---------5--0----------0---5-----------0------0---0---5---------5---|

[Instrumental 1]
        Acoustic Guitar [0:53]
 D|-------------------------0-------0---0---|
 A|-------------------------0--0--0-0-0-0---|
F#|-------------------------1--1--1-1-1-1---|
 D|------2h4p2--0--0h2------0--0--0---------|
 A|-------------0--0---2-------2------------|
 D|---0----------------0--------------------|
                *pick up pick during this quick break

[Verse 2]
        Acoustic Guitar [0:59]
 D|-----------------------------------------------------------------------------|
 A|--------------------0----------0-0-0-0---0------0------------0---0-----------|
F#|------0---0---0--5------5--5-5-5-5-5-5---0-0--------------5--5-5-5-5---5-5---|
 D|------0---0---0--5------5--5-5-5-5-5-5-----0--0---0--0----5--5-5-5-5---5-5---|
 A|----------0------x------x--x-x----------------0---0--0-------x---x-----------|
 D|---0------0------5------5--------------0------0------0--5----5---5-----------|

        Acoustic Guitar [1:11]
 D|-----------------------------------------------------------------------------|
 A|--------------------0----------0--0-0---0-0---0-0------0-----0---------0-0---|
F#|------0---0--0---5--5---5--5-5-5--5-5---0-0---0-0----5---5-5-5-5-5-5---5-5---|
 D|------0---0--0-0-5--5---5--5-5-5--5-5-0-0-0-0-0-0-0--5---5-5-5-5-5-5---5-5---|
 A|----------0----0-x------x--x-x-x------0-----0-----0--x-------x-----x---------|
 D|---0----0-0----0-5------5------5------0-----0-----0--5-------5-----5---------|

[Chorus 2]
        Acoustic Guitar [1:22]
 D|--------------------------------------------------0-------------------------------------|
 A|-------------0--------------0---------------------0-0-0---0-0----0-------0--------------|
F#|-----0-0h1-0-0---0--5-5-5-5-5-5-5-5-5-5---0-0h1-0-0-0-0---0-0-5--5-5-5-5-5-5-5-5--5-5---|
 D|-----0-0---0-----0--5-5-5-5---5-5-5-5-5---0-0---0---0-0-0-0-0-5--5-5-5-5-5-5-5-5--5-5---|
 A|-------0h2-0-----0--x-----x-------x---------0h2-0-------0-----x--------x-------x--------|
 D|---0----------------5-----5-------5-----0---------------0-----5--------5-------5--------|

        Acoustic Guitar [1:34]
 D|---------------------------------------------------------------7-7-7-5--5--5-5--5-5-5-5-5---|
 A|-------------0--------------0-------------0---0---0---0-----0--0-0-0-0--0--0-0--0-0-0-0-0---|
F#|-----0-0h1-0-0---0--5-5-5-5-5-5-5-5-5-5-0-0-0-0-0-0-0-0-0-0-0--0-0-0-0--0--0-0--0-0-0-0-0---|
 D|-----0-0---0-----0--5-5-5-5---5-5-5-5-5-0-0-0-0-0-0-0-0-0-0-0--7-7-7-5--5--5-5--5-0-0-0-0---|
 A|-------0h2-0-----0--x-----x-------x-----0---0---0---0---0-0----0-----0----------------------|
 D|---0----------------5-----5-------5-----0-------0-------0------0-----0----------------------|

[Bridge]
        Acoustic Guitar [1:45]
 D|---0-0---0-0--0---0-0----0--0-0---0-0--0---0-0----0--0-0---0-0--0---0-0----0--0-0---0-0--0---0-0----0---|
 A|---0-0-0-0-0--0-0-0-0--0-0--0-0-0-0-0--0-0-0-0--0-0--0-0-0-0-0--0-0-0-0--0-0--0-0-0-0-0--0-0-0-0--0-0---|
F#|---5-5-5-5-5--5-5-5-5--5-5--5-5-5-5-5--5-5-5-5--5-5--0-0-0-0-0--0-0-0-0--0-0--1-1-1-1-1--1-1-1-1--1-1---|
 D|---4-4-4-4-4--4-4-4-4--4----5-5-5-5-5--5-5-5-5--5-5--0-0-0-0-0--0-0-0-0--0-0--2-2-2-2-2--2-2-2-2--2-2---|
 A|---2---2---2----2---2--2----x---x---x----x---x--x----0---0---0----0---0--0----0---0---0----0---0--0-0---|
 D|----------------------------5-------5--------5-------0-------0--------0---------------------------------|

        Acoustic Guitar [1:57]
 D|---0-0---0-0--0---0-0----0--0-0---0-0--0---0-0----0--0-0---0-0--0---0-0----0--0---|
 A|---0-0-0-0-0--0-0-0-0--0-0--0-0-0-0-0--0-0-0-0--0-0--0-0-0-0-0--0-0-0-0--0-0--0---|
F#|---5-5-5-5-5--5-5-5-5--5-5--5-5-5-5-5--5-5-5-5--5-5--0-0-0-0-0--0-0-0-0--0-0--1---|
 D|---4-4-4-4-4--4-4-4-4--4----5-5-5-5-5--5-5-5-5--5-5--0-0-0-0-0--0-0-0-0--0-0--2---|
 A|---2---2---2----2---2--2----x---x---x----x---x--x----0---0---0----0---0--0----0---|
 D|----------------------------5-------5--------5-------0-------0--------0-----------|

[Chorus 3]
        Acoustic Guitar [2:08]
 D|-------------------------0-----0-------------------------------0-------0---0---|
 A|-------------------------0-----0--0-0-0---0--------------------0-----0-0-0-0---|
F#|-------------------------1--1--1--1-1-1------------------------1--1--1-1-1-1---|
 D|------2h4p2--0--0h2------0--0--0--0-0-0-----2h4p2--0--0h2------0--0--0---------|
 A|------0------0--0---2-------2-----2-2-------0------0--0---2-------2------------|
 D|---0----------------0--------------------0----------------0--------------------|
                *Light palm mute, slowly pull it off

Acoustic Guitar [2:20]
 D|-------------------------0-----0------------0---0----0---0-----0----0---0---0---0-----------|
 A|-------------------------0-----0--0-0-0--0--0-0-0-0--0-0-0-0-0-0-0--0-0-0-0-0-0-0-x-x-x-x---|
F#|-------------------------1--1--1--1-1-1--0--0-0-0-0--0-0-0-0-0-0-0--0-0-0-0-0-0-0-x-x-x-x---|
 D|------2h4p2--0--0h2------0--0--0--0-0-0--0--0-0-0-0--0-0-0-0-0-0-0--0-0-0-0-0-0-0-x-x-x-x---|
 A|------0------0--0---2-------2-----2-2----0----0---0----0---0-0---0----0---0---0---x-x-x-x---|
 D|---0----------------0--------------------0--------0--------0-----0--------0-----------------|

        Acoustic Guitar [2:32]
 D|-------------0--------------0---------------------0-------0-0----0----------------------|
 A|-----0-----0-0------0-0-0-0-0-0-0-0-0-0-0-0-------0-0-0---0-0-0--0-0-0-0-0-0-0-0--0-0---|
F#|---0-0-0h1-0-0---0--5-5-5-5-5-5-5-5-5-5-0-0-0h1-0-0-0-0-0-0-0-5--5-5-5-5-5-5-5-5--5-5---|
 D|---0-0-0---0-----0--5-5-5-5---5-5-5-5-5-0-0-0---0---0-0-0-0-0-5--5-5-5-5-5-5-5-5--5-5---|
 A|---0---0h2-0-----0--x-----x-------x-----0---0h2-0-------0-----x--------x-------x--------|
 D|---0-------------0--5-----5-------5-----0---------------0-----5--------5-------5--------|

        Acoustic Guitar [2:43]

 D|-------------0--------------0---------------------0-------0-0-----------------|
 A|-----0-----0-0------0-0-0-0-0-0-0-0-0-0-0-0-------0-0-0---0-0-0-0-0-0-0-0-0---|
F#|---0-0-0h1-0-0---0--5-5-5-5-5-5-5-5-5-5-0-0-0h1-0-0-0-0-0-0-0-5-5-5-5-5-5-5---|
 D|---0-0-0---0-----0--5-5-5-5---5-5-5-5-5-0-0-0---0---0-0-0-0-0-5-5-5-5-5-5-5---|
 A|---0---0h2-0-----0--x-----x-------x-----0---0h2-0-------0-----x-x-x-x-x-x-x---|
 D|---0-------------0--5-----5-------5-----0---------------0-----5-5-5-5-5-5-5---|

[Outro]
        Acoustic Guitar [2:54]
 D|-------------------------0-----0--2p0-----------------------------------------0---|
 A|-------------------------0--0--2--0------0-------------------0------0--------0----|
F#|-------------------------1--1--1--1------0---------------------1------1-----0-----|
 D|---0--2h4p2--0--0h2------0--0--0--0----0---2h4p2--0--0h2---0---------------0------|
 A|---0--0------0--0---2-------2----------0---0------0--0--------------------0-------|
 D|---0----------------0------------------0-----------------0--------0------0--------|

[Verse 1]
Gone, too soon
To find, find him
And how long, we had
And I could make this last

[Chorus 1]
In this home again
Yeah, I wish you were here
in this home again
Oh, and I want you near
this home again
Yeah, I wish you were here
in this home again

[Verse 2]
Loved, not lost
In times we fought
To stay, right here
And ooh, well I miss you dear

[Chorus 2]
In this home again
Yeah, I wish you were here
in this home again
Oh, and I want you near
this home again
And I wish you were here
in this home again

[Bridge]
And I was dreaming, and now we're 17
I was holding on to you, you were holding on to me
But if I lay here, and if I lie on this ground
Will you stay with, or will you be around

[Chorus 3]
This home again
I wish you were here
in this home again
But I want you near
this home again
I wish you were here
in this home again

In this home again
I wish you were here
This home again
Oh, and I want you near
this home again
And I wish you were here
in this home again, in this home again

************************************

| x  Dead note
| h  Hammer-on
| p  Pull-off

************************************

            
            
Suggest correction
Creating personal tab
Creating personal tab
You can edit any tab online and save it as your Personal.

You can edit, replace or remove any tab part or add personal notes – all changes will be seen only by you.

Personal tabs can be accessed anytime from any device, even offline.
Learn more »
Give kudos to tab author, rate the tab!
1 2 3 4 5
comments
print report bad tab
1 comment total.
+1 reply
Nececelery 10 May 22, 2017 07:27 AM

I was not expecting this so soon, thank you!

guest
You may want to rate the tab now too:
select rating
Wanna post a correction for this tab? Suggest correction