Oops, an error
Loading. Please wait.

More Trucks Than Cars tab

535 views 3 this week
2 commentsread comments
1 2 3 4 5
2 more votes to show rating
add to favorites
×
Save as Personal and add changes to this tab that will be seen only by you. Learn more ›
×
You can save this tab as Personal to edit and correct it or add notes. All changes will be seen only by you. Learn more »
launch autoscroll
font size
0
reset
how to read this tab
guitar tuner
edit
Autoscroll
slow
fast
+/-
esc
set tempo
stop
Author
Difficulty
Craig Morgan "More Trucks Than Cars"


e|--------------------------------------------------------------------------------|
B|-----------------------------h1-------h1-------h1---9--9--9--9---9--9--9--9--9--|
G|-----1-----1-1-----1-----1-1----1--------1--------1-10-11-10-11--10-11-10-11-10-|
D|-1-1---1-4-----3-3---3-4----------3p1------3p1------11-11-11-11--11-11-11-11-11-|
A|--------------------------------------------------------------------------------|
E|--------------------------------------------------------------------------------|

e|----------------------------------------------------|
B|-h1-------h1-------h1---9--9--9--9---9--9--9--9--9--|
G|----1--------1--------1-10-11-10-11--10-11-10-11-10-|
D|------3p1------3p1------11-11-11-11--11-11-11-11-11-|
A|----------------------------------------------------|
E|----------------------------------------------------|



(verse)
Ab                Gb               Dd        
  Out here on the backside of that city limit sign where the world turns two lanes
Ab                    Gb                  Db   
  Pretty girl working at the bank and the fella toppin’ off your tank knows your name
Ab             Gb           Db
  Water tower, power lines, swimming holes rusty old RC cola sign
Bbm                            Eb  
  And county fairs, raise your hands up if you’ve been there


(chorus)
Ab                                Gb            Db 
Where there’s biscuits, grits and gravy and the waitress calls you baby
        Bbm                                        Eb  
And the starlight’s like a streetlight on a summer night.
       Ab                 Db                 
We say hell ya and amen, yeehaw, and y’all come back again
    Bbm                           Dd                
And pray that our boys come home alive
 Db                       Bbm                              Eb
And when Old Glory flies, we still hold our hands over our hearts
(no chord)                     Ab   Gb  Db, Ab  Gb  Db
Where there’s more trucks than cars.


(verse)
          Ab                 Gb               Db  
Well, I’ve been there on the concrete of them big city streets
                 Ab                   Gb   
In my Ford truck, traffic jam in the town square
        Db                        (no chord)
Told my buddies living up there,   good luck
Ab                Gb               Db
Meanwhile back in Tennessee we’re raising our babies and our own green beans
Bbm                        Eb
  Kicking up dust, come on down when you had enough



(chorus)
Ab                                Gb            Db 
Where there’s biscuits, grits and gravy and the waitress calls you baby
        Bbm                                        Eb  
And the starlight’s like a streetlight on a summer night.
       Ab          Gb       Db                 
We say hell ya and amen, yeehaw, and y’all come back again
    Bbm                          Db                
And pray that our boys come home alive
              Bbm                                          Eb   
And when Old Glory flies, we still hold our hands over our hearts
Eb                                 
Where there’s more trucks than 

(instrumental)

e|-----------------------------9-7b---------------------------------------------6-7-9-10b-----|
B|--------4-6--------------6-9------9-6b-7-6------------------------------6-7-9---------------|
G|-----s5----4b-------4b---------------------6h8------------------6---6-8---------------------|
D|-4-6----------6-4-6----6-----------------------9b-6---6-8-9-8-9---9-------------------------|
A|----------------------------------------------------9---------------------------------------|
E|--------------------------------------------------------------------------------------------|

cars.


(out)
(no chord)
Where there’s biscuits, grits and gravy, your pretty waitress calls you baby

And the starlight’s like a streetlight on a summer night.
       Ab          Gb       Db                 
We say hell ya and amen, yeehaw, and y’all come back again
    Bbm           Ab             Db                
And pray that our boys come home alive
Db                        Bbm                              Db
And when Old Glory flies, we still hold our hands over our hearts
Db                             Ab Gb Db   
Where there’s more trucks than cars.
                               Ab Gb, Db Ab Db      Ab 
Where there’s more trucks than cars.

            
            
Suggest correction
Creating personal tab
Creating personal tab
You can edit any tab online and save it as your Personal.

You can edit, replace or remove any tab part or add personal notes – all changes will be seen only by you.

Personal tabs can be accessed anytime from any device, even offline.
Learn more »
Give kudos to tab author, rate the tab!
1 2 3 4 5
comments
print report bad tab
2 comments total.
0 reply
mp98rp99 10 Jan 20, 2013 11:29 AM

dont make this so that you con not see the note above, make it chords not tab and in natural progresson

guest
You may want to rate the tab now too:
select rating
Wanna post a correction for this tab? Suggest correction