Oops, an error
Loading. Please wait.

We Hate You Please Die bass

version 2
version 2

Whole song

33,740 views 69 this week
2 commentsread comments
1 2 3 4 5
x 13
add to favorites
×
Save as Personal and add changes to this tab that will be seen only by you. Learn more ›
×
You can save this tab as Personal to edit and correct it or add notes. All changes will be seen only by you. Learn more »
launch autoscroll
font size
0
reset
guitar tuner
edit
Autoscroll
slow
fast
+/-
esc
set tempo
stop
Author
Difficulty
intermediate
Artist: Crash and the Boys
Song: We hate you please die

[Intro]
G|-----------------------------|
D|-----4~--------4~------------|
A|-----------------------------|
E|-22~-------22~---------------|

(Main Riff)
G|--------------------------------------------------------|
D|--------------------------------------------------------|
A|--3h4-44-3h-44----------3h4-44-3h4-44-0-00-0--4/2-22-2--|
E|---------------2-22-2-----------------------------------|

G|-------------------------------------------------|
D|-------------------------------------------------|
A|--3h4-44-3h-44----------3h4-44-3h4-44-0-00-0--4/-|
E|---------------2-22-2----------------------------|

G|---------------------------(5)----------|
D|----------------------------------------|
A|-2-22-2-2\4-44-4-4-4-44-4-4---2-22-2-2\-|
E|----------------------------------------|x2

G|-------------------------|
D|-------------------------|
A|-2-22-2-2/---------------|
E|-------------------------|

[Second Intro + Key Change]
G|-----------------------------|
D|-----------------------------|
A|-----------------------------|
E|-22~-22~--33~-33~------------|

[Main Riff Second Time]
G|----------------------------------------------------------|
D|----------------------------------------------------------|
A|--4h5-55-4h5-55----------4h5-55-4h5-55-1-11-1--5/3-33-3---|
E|-----------------3-33-3-----------------------------------|

G|--------------------------------------------------|
D|--------------------------------------------------|
A|--4h5-55-4h5-55----------4h5-55-4h5-55-1-11-1--5/-|
E|-----------------3-33-3---------------------------|

G|---------------------------(6)----------|
D|----------------------------------------|
A|-3-33-3-3\5-55-5-5-5-55-5-5---3-33-3-3\-|
E|----------------------------------------|x2

G|-------------------------|
D|-------------------------|
A|-3-33-3-3/11--11--11*\---| *(thats two 1's, not eleven)
E|-------------------------|


************************************

| ~    Vibrato
| h    Hammer-on
| /    Slide up
| (n)  Ghost note
| \    Slide down

************************************
Suggest correction
Creating personal tab
Creating personal tab
You can edit any tab online and save it as your Personal.

You can edit, replace or remove any tab part or add personal notes – all changes will be seen only by you.

Personal tabs can be accessed anytime from any device, even offline.
Learn more »
comments
print report bad tab
2 comments total.
+4 reply
SaintChris 123 Jan 25, 2011 10:18 AM

awesome. i've been really digging this song. best :59 seconds of my day.

+2 reply
Unclejoshe 10 Jun 13, 2013 01:30 AM

Awesome song, PLEASE MORE SCOTT PILGRIM

guest
You may want to rate the tab now too:
select rating
Wanna post a correction for this tab? Suggest correction