Oops, an error
Loading. Please wait.
We have Chord Pro version of Mmm Mmm Mmm Mmm.
It's the closest thing you can get to the original song and it has interactive parts. Check out the tab »
×
41,439 views 117 this week
4 commentsread comments
1 2 3 4 5
x 16
add to favorites
×
Save as Personal and add changes to this tab that will be seen only by you. Learn more ›
×
You can save this tab as Personal to edit and correct it or add notes. All changes will be seen only by you. Learn more »
launch autoscroll
font size
0
reset
how to read this tab
guitar tuner
backing track
0:00
0:00
edit
Autoscroll
slow
fast
+/-
esc
set tempo
stop
Slighty less complicated, and (in my opinion) slighly more good sounding than the 
other version on the site.

Guitar 1 (Capo 3)
     E  E  E  E  E  E  E  E     E  E  E  E  E  E  E  E   
E||--------------------------|--------------------------|
B||--------0-----------3-----|--------0-----------3-----|
G||--------0-----------4-----|--------0-----------4-----|
D||-----------0-----4-----0--|-----------0-----4-----0--|
A||-----2--------2-----------|-----2--------2-----------|
E||--0-----------------------|--0-----------------------|


  E  E  E  E  E  E    E  E     E  E  E  E  E  E    E  E   
----------------------------|----------------------------|
--------1-----------0g1-----|--------1-----------0g1-----|
--------2-------------------|--------2-------------------|
-----3-----0-----0-------0--|-----3-----0-----0-------0--|
----------------------------|----------------------------|
--1-----------3-------------|--1-----------3-------------|


  E  E  E  E  E  E    E  E     E  E  E  E  E  E  E  E   
--------0-------------------|--------------------------|
--------1-----------0g1-----|--------1-----------1-----|
--------2-------------------|-----0-----0-----0-----0--|
-----2-----0-----0-------0--|-----------------------0--|
--0-------------------------|--3-----------------------|
--------------3-------------|--------------0-----------|


  E  E  E  E  E  E  E  E     E  E  E  E  E  E  E  E   
--------------------------|--------------------0-----|
--------1-----------1-----|--------3-----------1-----|
--------2--------------0--|--------0--------0-----0--|
-----3-----0-----2-----0--|-----0-----0--------------|
--3-----------3-----------|--------------3-----------|
--1-----------------------|--3-----------------------|


  E  E  E  E  E  E  E  E     E  E  E  E  E  E  E  E   
--------------------------|--------------------0-----|
--------1-----------1-----|--------3-----------1-----|
--------2-----------2-----|--------0--------0-----0--|
-----3-----3-----3-----0--|-----0-----0--------------|
--------------3-----------|--------------3-----------|
--1-----------------------|--3-----------------------|


  E  E  E  E  E  E  E  E     E  E  E  E  E  E  E  E   
--------------------0-----|--1-----1--3--0-----3-----|
--------3-----------1-----|--------1--------1--------|
--------0--------0-----0--|-----2-----0-----0-----0--|
-----0-----0--------------|--3-----------3-----------|
--------------3-----------|--------------------------|
--3-----------------------|--------------------------|





  E  E  E  E  S  E  E   E   S    E  E  E  E  E  E  E  E   
--------3---------------3-----|--------3-----------------|
--------3---------------3-----|--------3-----------4-----|
-----0-----0--------0-------0-|-----0-----0--------------|
------------------------------|-----------------6-----0--|
--------------0h-2-----(2)----|--------------------------|
--3---------------------------|--3-----------4-----------|


  E  E  E  E  E  E  E  E     E  E  E  E  E  E  E  E   
--------0-----------------|--------------------------|
--------1-----------4-----|--------0-----------0-----|
-----------0--------------|--------0-----------0-----|
-----2-----------6-----0--|-----3-----3-----3-----3--|
--3-----------------------|--------------3-----------|
--------------4-----------|--1-----------------------|


  E  E  E  E  E  E  E  E     E  E  E  E  E  E  E  E   
--------------------------|--------------------------|
--------1-----------1-----|--------0-----------3-----|
--------2-----------2-----|--------0-----------4-----|
-----3-----3-----3-----3--|-----------0-----4-----0--|
--------------3-----------|-----2--------2-----------|
--1-----------------------|--0-----------------------|


  E  E  E  E  E  E  E  E     E  E  E  E  E  E    E  E   
--------------------------|----------------------------|
--------0-----------3-----|--------1-----------0g1-----|
--------0-----------4-----|--------2-------------------|
-----------0-----4-----0--|-----3-----0-----0-------0--|
-----2--------2-----------|----------------------------|
--0-----------------------|--1-----------3-------------|


  E  E  E  E  E  E    E  E     E  E  E  E  E  E    E  E   
----------------------------|--------0-------------------|
--------1-----------0g1-----|--------1-----------0g1-----|
--------2-------------------|--------2-------------------|
-----3-----0-----0-------0--|-----2-----0-----0-------0--|
----------------------------|--0-------------------------|
--1-----------3-------------|--------------3-------------|


  E  E  E  E  E  E  E  E     E  E  E  E  E  E  E  E   
--------------------------|--------------------------|
--------1-----------1-----|--------1-----------1-----|
-----0-----0-----0-----0--|--------2--------------0--|
-----------------------0--|-----3-----0-----2-----0--|
--3-----------------------|--3-----------3-----------|
--------------0-----------|--1-----------------------|


  E  E  E  E  E  E  E  E     E  E  E  E  E  E  E  E   
--------------------0-----|--------------------------|
--------3-----------1-----|--------1-----------1-----|
--------0--------0-----0--|--------2-----------2-----|
-----0-----0--------------|-----3-----3-----3-----0--|
--------------3-----------|--------------3-----------|
--3-----------------------|--1-----------------------|


  E  E  E  E  E  E  E  E     E  E  E  E  E  E  E  E   
--------------------0-----|--------------------0-----|
--------3-----------1-----|--------3-----------1-----|
--------0--------0-----0--|--------0--------0-----0--|
-----0-----0--------------|-----0-----0--------------|
--------------3-----------|--------------3-----------|
--3-----------------------|--3-----------------------|


  E  E  E  E  E  E  E  E     E  E  E  E  S  E  E   E   S  
--1-----1--3--0-----3-----|--------3---------------3-----|
--------1--------1-----0--|--------3---------------3-----|
-----2-----0-----0--------|-----0-----0--------0-------0-|
--3-----------------------|------------------------------|
--------------3-----------|--------------0h-2-----(2)----|
--------------------------|--3---------------------------|


  E  E  E  E  E  E  E  E     E  E  E  E  E  E  E  E   
--------3-----------------|--------0-----------------|
--------3-----------4-----|--------1-----------4-----|
-----0-----0--------------|-----------0--------------|
-----------------6-----0--|-----2-----------6-----0--|
--------------------------|--3-----------------------|
--3-----------4-----------|--------------4-----------|


  E  E  E  E  E  E  E  E     E  E  E  E  E  E  E  E   
--------------------------|--------------------------|
--------0-----------0-----|--------1-----------1-----|
--------0-----------0-----|--------2-----------2-----|
-----3-----3-----3-----3--|-----3-----3-----3-----3--|
--------------3-----------|--------------3-----------|
--1-----------------------|--1-----------------------|


    E  E  E  E  E  E  E  E     E  E  E  E  E  E  E  E   
|---------------------------|--------------------------|
|---------0-----------3-----|--------0-----------3-----|
|*--------0-----------4-----|--------0-----------4-----|
|*-----------0-----4-----0--|-----------0-----4-----0--|
|------2--------2-----------|-----2--------2-----------|
|---0-----------------------|--0-----------------------|


  E  E  E  E  E  E    E  E     E  E  E  E  E  E    E  E     
----------------------------|-----------------------------||
--------1-----------0g1-----|--------1-----------0g1------||
--------2-------------------|--------2-------------------*||
-----3-----0-----0-------0--|-----3-----0-----0-------0--*||
----------------------------|-----------------------------||
--1-----------3-------------|--1-----------3--------------||







  E  E  E  E  E  E  E  E     E  E  E  E  E  E  E  E   
--------1-----------1-----|--------0-----------3-----|
--------3-----------3-----|--------1-----------3-----|
-----2-----2-----2-----2--|-----0-----0-----0-----0--|
--0-----------0-----------|-----------------0-----0--|
--------------0-----------|--3-----------------------|
--------------------------|--------------3-----------|


  E  E  E  E  E  E  E  E     E  E  E  E  E  E  E  E   
--------1-----------1-----|--------0-----------3-----|
--------3-----------3-----|--------1-----------3-----|
-----2-----2-----2-----2--|-----0-----0-----0-----0--|
--0-----------0-----------|-----------------0-----0--|
--------------0-----------|--3-----------------------|
--------------------------|--------------3-----------|


  E  E  E  E  E  E  E  E     E  E  E  E     E  E  E  E  E  E    E  E   
--------1-----------1-----|--------1-----|--------0-------------------|
--------1-----------1-----|--------1-----|--------1-----------0g1-----|
--------0-----------0-----|--------0-----|--------2-------------------|
-----3-----3-----3-----3--|-----3-----3--|-----2-----0-----0-------0--|
--------------------------|--------------|--0-------------------------|
--1-----------1-----------|--1-----------|--------------3-------------|


  E  E  E  E  E  E  E  E     E  E  E  E  E  E  E  E   
--------------------------|--------------------------|
--------1-----------1-----|--------1-----------1-----|
-----0-----0-----0-----0--|--------2--------------0--|
-----------------------0--|-----3-----0-----2-----0--|
--3-----------------------|--3-----------3-----------|
--------------0-----------|--1-----------------------|


  E  E  E  E  E  E  E  E     E  E  E  E  E  E  E  E   
--------------------0-----|--------------------------|
--------3-----------1-----|--------1-----------1-----|
--------0--------0-----0--|--------2-----------2-----|
-----0-----0--------------|-----3-----3-----3-----0--|
--------------3-----------|--------------3-----------|
--3-----------------------|--1-----------------------|


  E  E  E  E  E  E  E  E     E  E  E  E  E  E  E  E   
--------------------0-----|--------------------0-----|
--------3-----------1-----|--------3-----------1-----|
--------0--------0-----0--|--------0--------0-----0--|
-----0-----0--------------|-----0-----0--------------|
--------------3-----------|--------------3-----------|
--3-----------------------|--3-----------------------|


  E  E  E  E  E  E  E  E     E  E  E  E  S  E  E   E   S  
--1-----1--3--0-----3-----|--------3---------------3-----|
--------1--------1--------|--------3---------------3-----|
-----2-----0-----0-----0--|-----0-----0--------0-------0-|
--3-----------------------|------------------------------|
--------------3-----------|--------------0h-2-----(2)----|
--------------------------|--3---------------------------|


  E  E  E  E  E  E  E  E     E  E  E  E  E  E  E  E   
--------3-----------------|--------0-----------------|
--------3-----------4-----|--------1-----------4-----|
-----0-----0--------------|-----------0--------------|
-----------------6-----0--|-----2-----------6-----0--|
--------------------------|--3-----------------------|
--3-----------4-----------|--------------4-----------|


  E  E  E  E  E  E  E  E     E  E  E  E  E  E  E  E   
--------------------------|--------------------------|
--------0-----------0-----|--------1-----------1-----|
--------0-----------0-----|--------2-----------2-----|
-----3-----3-----3-----3--|-----3-----3-----3-----3--|
--------------3-----------|--------------3-----------|
--1-----------------------|--1-----------------------|


    E  E  E  E  E  E  E  E     E  E  E  E  E  E  E  E   
|---------1-----------1-----|--------0-----------3-----|
|---------3-----------3-----|--------1-----------3-----|
|*-----2-----2-----2-----2--|-----0-----0-----0-----0--|
|*--0-----------0-----------|-----------------0-----0--|
|---------------0-----------|--3-----------------------|
|---------------------------|--------------3-----------|


  E  E  E  E  E  E  E  E     E  E  E  E  E  E  E  E   
--------1-----------1-----|--------0-----------3-----|
--------3-----------3-----|--------1-----------3-----|
-----2-----2-----2-----2--|-----0-----0-----0-----0--|
--0-----------0-----------|-----------------0-----0--|
--------------0-----------|--3-----------------------|
--------------------------|--------------3-----------|


  E  E  E  E  E  E  E  E     E  E  E  E  E  E  E  E     
--------1-----------1-----|--------0-----------0------||
--------1-----------1-----|--------1-----------1------||
--------0-----------0-----|-----0-----0-----0-----0--*||
-----3-----3-----3-----3--|--------------------------*||
--------------------------|--3-----------3------------||
--1-----------1-----------|--0-----------0------------||


  E  E  E  E  E  E  E  E     E  E  E  E  E  E  E  E   
--------1-----0-----------|--------3-----------3-----|
--------------------3-----|--------1-----0-----------|
-----2--2--2-----2--2--2--|-----0-----0-----0-----0--|
--0-----------0-----------|--------------------------|
--------------------------|--3-----------------------|
--------------------------|--------------3-----------|







  E  E  E  E  E  E  E  E     E  E  E  E  E  E  E  E   
--------1-----0-----------|--------3-----------3-----|
--------------------3-----|--------1-----0-----------|
-----2--2--2-----2--2--2--|-----0-----0-----0-----0--|
--0-----------0-----------|--------------------------|
--------------------------|--3-----------------------|
--------------------------|--------------3-----------|


  E  E  E  E  E  E  E  E     E  E  E  E  E  E  E  E   
--------1-----------1-----|--------0-----------0-----|
--------1-----------1-----|--------1-----------1-----|
--------0-----------0-----|-----0-----0-----0-----0--|
-----3-----3-----3-----3--|--------------------------|
--------------------------|--3-----------3-----------|
--1-----------1-----------|--0-----------0-----------|


  E  E  E  E  E  E  E  E          
--------1-----0-----------|-----||
--------------------3-----|-----||
-----2--2--2-----2--2--2--|-----||
--0-----------0-----------|-----||
--------------------------|-----||
--------------------------|-----||

            
            
Suggest correction
Creating personal tab
Creating personal tab
You can edit any tab online and save it as your Personal.

You can edit, replace or remove any tab part or add personal notes – all changes will be seen only by you.

Personal tabs can be accessed anytime from any device, even offline.
Learn more »
comments
print report bad tab
4 comments total. Showing first comments.
0 reply
Ollewurst 10 May 08, 2009 08:25 AM

Great Tab!!! In my Eyes the much better than the first version!!! Great Work

0 reply
Glorydays 10 Dec 02, 2009 02:27 AM

Yeah, I do 2.. Much better then the other tab!.. sound´s more right in my ears!

0 reply
fizurp 10 Jun 11, 2013 01:44 AM

What does the 0g1 stand for when u a have the g shape? Does that denote a hammer on from open to fret one on the b string?? Cuz I think this version sounds much better too but I for some reason i just can't seem to get thathammer on to sound right.. and isn't there another hammer on from 0 to 2 on the second time you play the three g's leading up to the chorus?

guest
You may want to rate the tab now too:
select rating
Wanna post a correction for this tab? Suggest correction