Oops, an error
Loading. Please wait.

Untitled Tab

496 views 3 this week
no commentswrite comment
1 2 3 4 5
please rate
add to favorites
launch autoscroll
font size
0
reset
how to read this tab
guitar tuner
Autoscroll
slow
fast
+/-
esc
set tempo
stop
Help us to improve Ultimate-Guitar.com Take our survey!
×
Author/Artist: Crash Test Dummies (Brad Roberts)
Title: Untitled
Album: God Shuffled His Feet
Transcribed by: Martin Falk
This is the melody for Untitled I arranged for guitar.
It sounds pretty good if one is playing the melody
and another is playing the chords.
Note; The 2nd line is for the rythm guitar not the lead.
Play freely...

3/4

---8-----|-7/0-----|-3-2---|-2-4-----|---------|-9/5-----|-7-12-10-|-9/5---|
-6-------|---------|-----3-|---------|-5-7-----|---------|---------|------*|
--5------|---------|-------|---------|---------|---------|---------|-------|
---------|---------|-------|---------|---------|---------|---------|-------|
---------|---------|-------|---------|---------|---------|---------|------*|
---------|---------|-------|---------|---------|---------|---------|-------|
  F        C         D       E        A  D       A         Em        A  x2

-----------|-----0---|---------|--------------------------------------------|
-2---------|-0-----3-|-2-------|--------------------------------------------|
-----2-----|-0-------|-----2---|--------------------------------------------|
---2-------|---2-----|---2-----|--------------------------------------------|
-0---------|---2-----|-0-------|--------------------------------------------|
-----------|-0-------|---------|--------------------------------------------|
 Above: how I favor the rythm. guitar to play the last 3 chords in 1st line

-10-14-12-|-11-9-7-|-9/5----|-7------|--------------------------------------|
----------|--------|--------|--------|--------------------------------------|
----------|--------|--------|--------|--------------------------------------|
----------|--------|--------|--------|--------------------------------------|
----------|--------|--------|--------|--------------------------------------|
----------|--------|--------|--------|--------------------------------------|
 D          G#m      F#m     B

-10-14-12-|-10-9-7-|-5-7-0--|--------|--------|-----------------------------|
----------|--------|--------|-5------|-5------|-----------------------------|
----------|--------|--------|-6------|-4------|-----------------------------|
----------|--------|--------|--------|-6------|-----------------------------|
----------|--------|--------|--------|-7------|-----------------------------|
----------|--------|--------|--------|--------|-----------------------------|
  G         D        E        A      E
Suggest correction
Give kudos to tab author, rate the tab!
1 2 3 4 5
comments
print report bad tab
guest
You may want to rate the tab now too:
select rating
Please do not post tabs as comments. Select "correction" instead!