Oops, an error
Loading. Please wait.

California Tab

1,301 views 1 this week
1 commentread comment
1 2 3 4 5
2 more votes to show rating
add to favorites
launch autoscroll
font size
0
reset
how to read this tab
guitar tuner
Autoscroll
slow
fast
+/-
esc
set tempo
stop
Help us to improve Ultimate-Guitar.com Take our survey!
×
Author
CALIFORNIA
CRASHDIET
Tabbed by T
Email wasssup@hotmail.co.uk for any contributions, corrections etc.
I won't read it, but its always nice to inflate my ego.

all tabs of phrasings, no timings, etc.

INTRO
gtr 1
e---------------------------------------------------------------|
B-----0-----0-----0-----0-----0-------0-----0-----0-----0-----0-|
G---2-----2-----2-----2-----2-------2-----2-----2-----2-----2---| X2
D-2-----4-----5-----5-----5-------2-----4-----0-----0-----0-----|
A---------------------------------------------------------------|
E---------------------------------------------------------------|

gtr 1 & 2
e-----------------|
B-----------------|
G--------------9/-|
D--------------9/-| X8
A-------7------7/-|
E---0-00--00-0----|
pm  . ..  .  .
gtr 1
e---------------------------------------------------------------|
B-----0-----0-----0-----0-----0-------0-----0-----0-----0-----0-|
G---2-----2-----2-----2-----2-------2-----2-----2-----2-----2---| X4
D-2-----4-----5-----5-----5-------2-----4-----0-----0-----0-----|
A---------------------------------------------------------------|
E---------------------------------------------------------------|
gtr 2
e------------------------------------------|
B------------------------------------------|
G-9--7--5----9-----7-------7--5----9-----7-|
D-9--7--5----9--9--7----5--7--5----9--9--7-|
A-7--5--3----7--9--5----5--5--3----7--9--5-|
E---------------7-------3-------------7----|

VERSE
gtr 1 & 2
e-----------------|
B-----------------|
G--------------9/-|
D--------------9/-| X10
A-------7------7/-|
E---0-00--00-0----|
pm  . ..  .  .
e-----------------------|
B-----------------------|
G--------9-7-7-5-555557-|
D--------9-7-7-5-555557-|
A--------7-5-5-3-333335-|
E---0-00----------------|
pm  . ..
gtr 1
e-----------------|
B-----------------|
G--------------9/-|
D--------------9/-| X7
A-------7------7/-|
E---0-00--00-0----|
pm  . ..  .  .
gtr 2
e--------|
B--------|
G-9----7-|
D-9----7-| X3
A-7----5-|
E--------|
gtr 1
e-----------------|
B-----------------|
G-----------------|
D-----------------|
A-----------------|
E-0-3-5-0-3-5-7-0-|
gtr 2
e-----------------|
B-----------------|
G-----2-----2-4---|
D-2-5---2-5-----2-|
A-----------------|
E-----------------|

PRECHORUS
gtr 1 & 2
e-----------------|
B-----------------|
G-5----5----7-7-7-|
D-5----5----7-7-7-|
A-3----3----5-5-5-|
E-----------------|

CHORUS
gtr 1
e---------------------------------------------------------------|
B-----0-----0-----0-----0-----0-------0-----0-----0-----0-----0-|
G---2-----2-----2-----2-----2-------2-----2-----2-----2-----2---| X4
D-2-----4-----5-----5-----5-------2-----4-----0-----0-----0-----|
A---------------------------------------------------------------|
E---------------------------------------------------------------|
gtr 2
e------------------------------------------|
B------------------------------------------|
G-9--7--5----9-----7-------7--5----9-----7-|
D-9--7--5----9--9--7----5--7--5----9--9--7-|
A-7--5--3----7--9--5----5--5--3----7--9--5-|
E---------------7-------3-------------7----|

VERSE
gtr 1
e-----------------|
B-----------------|
G--------------9/-|
D--------------9/-| X7
A-------7------7/-|
E---0-00--00-0----|
pm  . ..  .  .
gtr 2
e--------|
B--------|
G-9----7-|
D-9----7-| X3
A-7----5-|
E--------|
gtr 1
e-----------------|
B-----------------|
G-----------------|
D-----------------|
A-----------------|
E-0-3-5-0-3-5-7-0-|
gtr 2
e-----------------|
B-----------------|
G-----2-----2-4---|
D-2-5---2-5-----2-|
A-----------------|
E-----------------|

PRECHORUS
gtr 1 & 2
e-----------------|
B-----------------|
G-5----5----7-7-7-|
D-5----5----7-7-7-|
A-3----3----5-5-5-|
E-----------------|

CHORUS
gtr 1
e---------------------------------------------------------------|
B-----0-----0-----0-----0-----0-------0-----0-----0-----0-----0-|
G---2-----2-----2-----2-----2-------2-----2-----2-----2-----2---| X4
D-2-----4-----5-----5-----5-------2-----4-----0-----0-----0-----|
A---------------------------------------------------------------|
E---------------------------------------------------------------|
gtr 2
e------------------------------------------|
B------------------------------------------|
G-9--7--5----9-----7-------7--5----9-----7-|
D-9--7--5----9--9--7----5--7--5----9--9--7-|
A-7--5--3----7--9--5----5--5--3----7--9--5-|
E---------------7-------3-------------7----|

SOLO

gtr 2
e-----------------|
B-----------------|
G--------------9/-|
D--------------9/-| X8
A-------7------7/-|
E---0-00--00-0----|
pm  . ..  .  .

e----------------------------------------|
B-------------------------------8--8-8-8-|
G-9--7--5---5---5---5-9-----7---7--7-7-7-|
D-9--7--5---5---5---5-9--9--7-77-77------|
A-7--5--3-333-333-333-7--9--5------------|
E------------------------7---------------|
pm        ..  ..  ..

e---------------------|
B---------------------|
G----7--5---5---5---5-|
D-5--7--5---5---5---5-|
A-5--5--3-333-333-333-|
E-3-------------------|
pm        ..  ..  ..
e---------------|
B---------------|
G-5---7---4---5-|
D-5---7---4---5-| X3
A-3---5---2---3-|
E---------------|

e-------------------|
B-------------------|
G-------------------|
D-----------------2-|
A-----------------2-|
E-7---5---3---2---0-|

gtr 1
e--------------------------|
B--------------------------|
G--------------------------|
D--------------------------|
A-/7----9b10---10r9---9/14-|
E--------------------------|

e-----------------------------------------------------------|
B-13--12-13p12-----------------------15b17-15b17-15b17r15---|
G-------------12~---161412--------------------------------/-|
D-------------------------161412--------------------------/-|
A-------------------------------1412------------------------|
E-----------------------------------------------------------|

e-1512---------------------------------------------------|
B-----15151512-------------------------------------------|
G-------------14141412-----------------------------------|
D---------------------14141412---------------------------|
A-----------------------------14141412----------12121414-|
E-------------------------------------1512121515---------|

e-------------------------|
B-12b----12b--------------|
G-12b-xx-12b-xx-12b14-----|
D-----xx-----xx-------14~-|
A-------------------------|
E-------------------------|

e-3p2p0-----3p2p05p3p03p2p0----------------------------------------|
B------3p2p0---------------3p2p0----------3p2p0--------------------|
G-------------------------------4p2p0----------4p2p0---------------|
D------------------------------------4p2p0----------4p2p04p2p0-----|
A------------------------------------------------------------------|
E--------------------------------------------------------------3b5-|

e-----------<7>-----------------------------------------|
B-------------------------------------------------------|
G-<7>--<5>-------<7>------------------------------------|
D--------------------9-9-9-7-7-7-5-5-5-4-4-4-4*b5r4--2--|
A-------------------------------------------------------|
E-------------------------------------------------------|

BRIDGE
gtr2
e---------------------------------------------------------------|
B-----0-----0-----0-----0-----0-------0-----0-----0-----0-----0-|
G---2-----2-----2-----2-----2-------2-----2-----2-----2-----2---| X2
D-2-----4-----5-----5-----5-------2-----4-----0-----0-----0-----|
A---------------------------------------------------------------|
E---------------------------------------------------------------|
gtr 1
e---------------------------------------------------------------|
B---------------------------------------------------------------|
G---------------------------------------------------------------|
D-2-2-2-4-4-4-5-5-5-5-5-5-5-5-5-2-2-2-4-4-4-0-0-0-0-0-0-0-0-0-0-| X2
A---------------------------------------------------------------|
E---------------------------------------------------------------|
pm throughout, release slowly throughout

CHORUS
gtr 1
e---------------------------------------------------------------|
B-----0-----0-----0-----0-----0-------0-----0-----0-----0-----0-|
G---2-----2-----2-----2-----2-------2-----2-----2-----2-----2---| X4
D-2-----4-----5-----5-----5-------2-----4-----0-----0-----0-----|
A---------------------------------------------------------------|
E---------------------------------------------------------------|
gtr 2
e------------------------------------------|
B------------------------------------------|
G-9--7--5----9-----7-------7--5----9-----7-|
D-9--7--5----9--9--7----5--7--5----9--9--7-| X2
A-7--5--3----7--9--5----5--5--3----7--9--5-|
E---------------7-------3-------------7----|
gtr 1 & 2
e------------------------------------------|
B------------------------------------------|
G------------5--4--7---------------9--5--7-|
D-2--4--5----5--4--7----2--4--5----9--5--7-|
A-2--4--5----3--2--5----2--4--5----7--3--5-|
E-0--2--3---------------0--2--3------------|

gtr1
e---------------------------------------------------------------0-|
B-----0-----0-----0-----0-----0-------0-----0-----0-----0-----0---|
G---2-----2-----2-----2-----2-------2-----2-----2-----2-----2-----| 
D-2-----4-----5-----5-----5-------2-----4-----0-----0-----0-------|
A-----------------------------------------------------------------|
E-----------------------------------------------------------------|
Suggest correction
Give kudos to tab author, rate the tab!
1 2 3 4 5
comments
print report bad tab
1 comment total.
0 reply
crizzy218 1,070 Jul 07, 2013 04:15 PM

i believe the first chord in the chorus is a G5 power chord as well

guest
You may want to rate the tab now too:
select rating
Wanna post a correction for this tab? Suggest correction