Oops, an error
Loading. Please wait.

Le Roy tab

115 views 1 this week
no commentswrite comment
1 2 3 4 5
3 more votes to show rating
add to favorites
×
Save as Personal and add changes to this tab that will be seen only by you. Learn more ›
×
You can save this tab as Personal to edit and correct it or add notes. All changes will be seen only by you. Learn more »
launch autoscroll
font size
0
reset
how to read this tab
guitar tuner
edit
Autoscroll
slow
fast
+/-
esc
set tempo
stop
Leroy

 F      C      G7     F      C      (paro)
Uammm, uammm, uammm, uammm, uammm

B   C
    Uno una vez un muchacho así
B   C
    era un rebelde hecho de verdad
B   C
    cuando la redada lo atrapó
B   C
    el gritó ¡caramba que haré yo!

 F
[Leroy]     Pobre ya no podrá
 C
[Leroy]     nunca jamás salir
                G7   F          C     (paro)
            por malo se quedará ahí
                aaa  aaaa       aaaa)

B   C
    Cuando en la cárcel se encontró
B   C
    dijo ¡caramba que haré yo!
B   C
    no puedo estar un momento más aquí
B   C
    cuando de repente se enfermó

F
[Leroy]     Pobre ya no podrá
 C
[Leroy]     nunca jamás salir
                G7   F          C     (paro)
            por malo se quedará ahí
                aaa  aaaa       aaaa)

Requinto         (paro)

B   C
    Y enfermo se pudo escapar
B   C
    quiso no pudo y se puso a llorar
B   C
    pensando en su chica se puso a soñar
B   C
    pobre muchacho, se quiso matar

F
[Leroy]     Pobre ya no podrá
 C
[Leroy]     nunca jamás salir
                G7   F          C     (paro)
            por malo se quedará ahí
                aaa  aaaa       aaaa)

Recuerda, olvida
yeah, ih, no llores más

Requinto         (paro)

B   C
    Y esta historia se terminó
B   C
    y aquel rebelde se reformó
B   C
    y un gran hombre de ahí salió
B   C
    viva Leroy que se reformó

 F
[Leroy]     Viva se reformó
 C
[Leroy]     viva se reformó
            G7     F     C
            ah     ay    Leroy
Leroy, Leroy, Leroy... ¡Leroy!

Riff inicial:

                                                         F
E|--------------------------|--------------------|-------1-|
B|--------------------------|--------------------|-------1-|
G|--------------------------|--------------------|-------2-|
D|--------------------------|-1------------------|---0-2-3-|
A|-2/3--3-3-3--3-3-3--3-3-3-|---3--3-3-3-3-3-3-3-|-3-----3-|
E|--------------------------|--------------------|-------1-|
                                                        ¡Uammm?!

Riffs de fondo:

   B    C
E|----------|
B|----------|
G|----------|
D|-1-1--2-2-|
A|-2-2--3-3-|
E|----------|
        Hubo una vez?

 F                      C                G7               C
    E|----------------|----------------|----------------|-----------|
    B|-6-6--6-6-6-6-6-|-5-5--5-5-5-5-5-|-6-6--4-4-4-4-4-|-5-5--5--5-|
    G|-5-5--5-5-5-5-5-|-5-5--5-5-5-5-5-|-4-4--5-5-5-5-5-|-5-5--5--5-|
    D|----------------|----------------|----------------|-----------|
    A|----------------|----------------|----------------|-----------|
    E|----------------|----------------|----------------|-----------|
[Leroy]  Pobre ya no podrá?

Puente:

   C
E|-8-8-8--6-6-6--8-8-8--6-6-6-|-8-8-8--6-6-8--6-6-8--6-6--8-8-8-|-
B|-8-8-8--6-6-6--8-8-8--6-6-6-|-8-8-8--6-6-8--6-6-8--6-6--8-8-8-|-
G|-9-9-9--7-7-7--9-9-9--7-7-7-|-9-9-9--7-7-9--7-7-9-------------|-
D|----------------------------|---------------------------------|-
A|----------------------------|---------------------------------|-
E|----------------------------|---------------------------------|-

     F                          C                G7        F
  E|-11-11b12--11b12-11-11-11-|-8-8--8-8-8-8-8-|-13-15-13--11-13-11-|-
  B|-10-10b11--10b11-10-10-10-|-8-8--8-8-8-8-8-|-12-12-12--10-10-10-|-
  G|--------------------------|----------------|--------------------|-
  D|--------------------------|----------------|--------------------|-
  A|--------------------------|----------------|--------------------|-
  E|--------------------------|----------------|--------------------|-

       C
    E|-8-8--7/8--7/8-7-|-
    B|-8-8--7/8--7/8-7-|-
    G|-----------------|-
    D|-----------------|-
    A|-----------------|-
    E|-----------------|-

   C
E|---------------------|---------------------|-
B|-5-5-5--5-5--5-5-5-5-|-5-5-5--5-5--5-5-5-5-|-
G|-5-5-5--5-5--5-5-5-5-|-5-5-5--5-5--5-5-5-5-|-
D|---------------------|---------------------|-
A|---------------------|---------------------|-
E|---------------------|---------------------|-

     F                     C
  E|---------------------|---------------------|-
  B|-4-4-4--4-4--4-4-4-4-|-5-5-5--5-5--5-5-5-5-|-
  G|-5-5-5--5-5--5-5-5-5-|-5-5-5--5-5--5-5-5-5-|-
  D|---------------------|---------------------|-
  A|---------------------|---------------------|-
  E|---------------------|---------------------|-

       G7     F              C
    E|---------------------|-----------------|-
    B|-6-6-6--4-4--4-4-4-4-|-5-5-5--5-5--5-5-|-
    G|-4-4-4--5-5--5-5-5-5-|-5-5-5--5-5--5-5-|-
    D|---------------------|-----------------|-
    A|---------------------|-----------------|-
    E|---------------------|-----------------|-

Riff final:

F                     C                G7                C              x3
  E|----------------|----------------|----------------||----------------||-
  B|-6-6--6-6-6-6-6-|-5-5--5-5-5-5-5-|-6-6--4-4-4-4-4-||-5-5--5-5-5-5-5-||-
  G|-5-5--5-5-5-5-5-|-5-5--5-5-5-5-5-|-4-4--5-5-5-5-5-||-5-5--5-5-5-5-5-||-
  D|----------------|----------------|----------------||----------------||-
  A|----------------|----------------|----------------||----------------||-
  E|----------------|----------------|----------------||----------------||-
[Leroy]  Viva se reformó?

         C
      E|------------0-0-|
      B|-1----------1-1-|
      G|---2-0------0-0-|
      D|-------2----2-2-|
      A|---------3--3-3-|
      E|----------------|
                   ¡Leroy!

            
            
Suggest correction
Creating personal tab
Creating personal tab
You can edit any tab online and save it as your Personal.

You can edit, replace or remove any tab part or add personal notes – all changes will be seen only by you.

Personal tabs can be accessed anytime from any device, even offline.
Learn more »
Give kudos to tab author, rate the tab!
1 2 3 4 5
comments
print report bad tab
guest
Wanna post a correction for this tab? Suggest correction