Oops, an error
Loading. Please wait.

Blame It On Love tab

991 views 15 this week
no commentswrite comment
1 2 3 4 5
x 3
add to favorites
×
Save as Personal and add changes to this tab that will be seen only by you. Learn more ›
×
You can save this tab as Personal to edit and correct it or add notes. All changes will be seen only by you. Learn more »
launch autoscroll
font size
0
reset
how to read this tab
guitar tuner
edit
Autoscroll
slow
fast
+/-
esc
set tempo
stop
Blame It On Love - Crazy Lixx
Tuning Half Step Down - Eb Ab Db Gb Bb eb
Tabbed By - Derek Schmidt

Check out my page for video cover - http://www.hammerheadrocks.com/#!dereks-page/c11nt

Tab Key:
h - hammer on
p - pull off
b - bend
r - release
v - vibrato
= - hold note
PH - pinch harmonic
\ - slide down neck
/ - slide up neck
PM - palm mute
W - whammy 
x - muted note
NH - natural harmonic


Intro: Guitar 1
e----------------------------------------------------------------------------|
B----------------------------------------------------------------------------|
G--6-----2-----4-4-4-4-4-4-4-4-4-4-4-4-4-4-4-4--6-----2-----4-----4--4-4--4--|
D--6-----2-----4-4-4-4-4-4-4-4-4-4-4-4-4-4-4-4--6-----2-----4-----4--4-4--4--|
A--4-----0-----2-2-2-2-2-2-2-2-2-2-2-2-2-2-2-2--4-----0-----2-----2--2-2--2--|
E----------------------------------------------------------------------------| 
              |           16 notes            |

e------------------|
B------------------|
G--6-----2-----4---|
D--6-----2-----4---|
A--4-----0-----2---|
E------------------| 
    
         
Guitar 2
e--------------------|
B----------12--------|
G------8-9------9-8--|
D--/11---------------|
A--------------------|
E--------------------| X9


Guitar 3
e----------------------9----------------9-------------------------------|
B--12b14-12b14r12p9h12----12b14r12p9h12---12--9-------------------------|
G-----------------------------------------------11-11b13r11b13r11p9h11--|
D-----------------------------------------------------------------------|
A-----------------------------------------------------------------------|
E-----------------------------------------------------------------------|

e-------------------------------------|
B-------------------------------------|
G--13b15-11h13p11-9h11p9--------------|
D----------------------11p9-----------|
A---------------------------11p9\7----|
E----------------------------------9--|

Then Guitar 2 and 3 do this together at the end of intro
e----------------------|
B----------12----------|
G------8-9------9-8----|
D--/11--------------9--|
A----------------------|
E----------------------|



Verse: Just Guitar 1
e--------------------------------------------------------------------------------------|
B--------------------------------------------------------------------------------------|
G--6---4-------2---2---4---6-6-6-6-6-6-6-6-4--6---4-------2---2---4--------------------|
D--6---4---2---2---2---4---6-6-6-6-6-6-6-6-4--6---4---2---2---2---4---6-6-6-6-6-6-6-6--|
A--4---2---2---0---0---2---4-4-4-4-4-4-4-4-2--4---2---2---0---0---2---6-6-6-6-6-6-6-6--|
E----------0------------------------------------------0---------------4-4-4-4-4-4-4-4--|



Chorus: Guitar 1
e-------------------------------|
B-------------------------------|
G--6-----2-----4-----4--4-4--4--|
D--6-----2-----4-----4--4-4--4--|
A--4-----0-----2-----2--2-2--2--|
E-------------------------------|

Guitar 2
e--------------------|
B----------12--------|
G------8-9------9-8--|
D--/11---------------|
A--------------------|
E--------------------| you will repeat this lick like 15 times


Verse



Chorus



Solo
e--------------------------------------------------------9--|
B-------------------------------------------------12/14-----|
G---------------9----11p9----------9----11/13--11-----------|
D--/11--11p9-11---11-------11p9-11---11---------------------|
A-----------------------------------------------------------|
E-----------------------------------------------------------|

e---------------------------------------------|
B---------------------------------------------|
G--8-9-11--9-11-13--11-13-14--13-14-16p14p13--|
D---------------------------------------------|
A---------------------------------------------|
E---------------------------------------------|

e---------------------------------------------------------------------------|
B----------------------14---------------------------------------------------|
G-16b18--16b18rp13--16----16b18rp13-----13------13h16p13--------------------|
D-----------------------------------16-----16b18---------16p14/11---11\9-11-|
A---------------------------------------------------------------------------|
E---------------------------------------------------------------------------|

e-----------------------------|------------------|----------------------|
B-----------------------------|------------------|----------------------|
G-----------------------------|------------------|--11b13rp9-11-9-------|
D--4b6--4-4---------------2---|----------2h4p2---|------------------11--|
A-----------7--7v-4\2-2h4---4-|------2h4-------4-|----------------------|
E-----------------------------|-2h4--------------|----------------------|
                             slightly palm mute this

e---------------------------------| |-----------|   
B--12b14--12b14--9h12p9-------12b-| |-9h12p9----|   
G-----------------------11p9------| |--------11-|   
D---------------------------------| |-----------|   
A---------------------------------| |-----------|   
E---------------------------------| |-----------| X4  

e---------------------------------|----------9-12p9---------|
B---------------------------------|-------10--------10------|
G--11b13rp9h11--9h11-11p9---------|-----9--------------9\6--|
D------------------------11p9h11--|--11---------------------|
A---------------------------------|-------------------------|
E---------------------------------|-------------------------|
                                           sweep this

e-----------------------------------------------------------------------|
B----------------------------------------9-12b14--9---------------------|
G-----------------------------------9h11-------------11b13===13rp9------|
D--2h4-4b6rp2--4--2-------------9h11--------------------------------11--|
A--------------------4--2h4---------------------------------------------|
E-----------------------------------------------------------------------|



Chorus till the end
Suggest correction
Creating personal tab
Creating personal tab
You can edit any tab online and save it as your Personal.

You can edit, replace or remove any tab part or add personal notes – all changes will be seen only by you.

Personal tabs can be accessed anytime from any device, even offline.
Learn more »
Give kudos to tab author, rate the tab!
1 2 3 4 5
comments
print report bad tab
guest
You may want to rate the tab now too:
select rating
Wanna post a correction for this tab? Suggest correction