Oops, an error
Loading. Please wait.

Butterfly Bass

version 1
version 1

Whole song

Interactive

40,433 views 87 this week
4 commentsread comments
1 2 3 4 5
x 23
add to favorites
launch autoscroll
font size
0
reset
guitar tuner
backing track
0:00
0:00
×
Best way to learn
"Butterfly"
Autoscroll
slow
fast
+/-
esc
set tempo
stop
Butterfly
Crazy Town
BY: Brian Fitzpatrick (brian157@hotmail.com)
Previous Author: Wade Vassallo (wade_mail@email.com)

[Whole song]

G|-17-----16----14---14-14----|--17----17-------19-----19------|
D|---14-----14----14------14--|----17----17-------19-----19----|
A|0-----0-----0-----0--0-----0|15----15----15/17----17-----17--|
E|----------------------------|--------------------------------|

G|-17-----16----14---14-14----|--14----14--(14/16)-16----16----|
D|---14-----14----14------14--|----15----15(15/17)---17----17--|
A|0-----0-----0-----0--0-----0|15----15-----15/17------17----17|
E|----------------------------|--------------------------------|


************************************

| /  Slide up 

************************************
Suggest correction
comments
print report bad tab
4 comments total. Showing first comments.
+1 reply
saturns_bassman 789 Aug 03, 2004 08:00 PM

damn!

+1 reply
SirPsychoTheSex 61 Mar 31, 2008 02:23 AM

What's with the:
G--14-16--|
D--15-17--|
A--15-17--|
E---------|

Doesn't make sense to me =/
Other than that, s'all good.

+3 reply
airsoftjake 10 Sep 09, 2008 01:27 PM

what? this doesnt make any scence to me

guest
You may want to rate the tab now too:
select rating
Wanna post a correction for this tab? Suggest correction