Oops, an error
Loading. Please wait.

Badge Tab

version 1
version 1

Whole song

Interactive

76,034 views 141 this week
7 commentsread comments
1 2 3 4 5
x 12
add to favorites
launch autoscroll
font size
0
reset
how to read this tab
guitar tuner
Autoscroll
slow
fast
+/-
esc
set tempo
stop
Help us to improve Ultimate-Guitar.com Take our survey!
×
Difficulty
intermediate
As recorded by Cream
(From the 1969 Album GOODBYE)

Words and Music by Eric Clapton/George Harrison

Gtr I (E A D G B E) - 'Guitar 1 (clean)'
Gtr II (E A D G B E) - 'Guitar 2 (distortion)'
Gtr III (E A D G B E) - 'Guitar 3 (distortion)'


[Intro]

  Moderately Q=108
  Am7              D                 Am               D
 4/4
  Gtr I
                                        PM  PM  PM    PM  PM  PM
  Q  e E e E e E   e E e E e E e E   Q  e E e E e E   e E e E e E  Q
e|----------------|-----------------|--------5-------|------------------|
B|----------------|-x-7-x-7-x---x---|--------5---5---|-x---x---x--------|
G|------5-x-5-x-7-|-x-7-x-7-x-7-x---|----x---5---x-7-|-x---x---x--------|
D|----x-5-x-5-x-7-|-x---x---x-7-x-7-|-7--x-7-7-7-x-7-|-x-7-x-7-x-7------|
A|-7--x-7-x-7-x-5-|-x---x---x---x-7-|-7--x-7---7-----|-5-5-x-5-x--------|
E|-5--x---x-------|-----------------|-5--------------|-------------10\--|


 [Verse 1]
   Am                  D                 Esus2     Em
      PM  PM  PM                   PM
   Q  E E E E E  E     E E E E e E E E   E E E E E E E E   E E E E E E E E
e|----5---5----------|---------------7-|-7-7-7-7-7-7-7-7-|-7-7-7-7-7-------|
B|----5---5----------|-7---7---7-----x-|-7-7-7-7-7-8-8-8-|-8-8-8-8-8-------|
G|----5---x---x------|-7-7-7-7-7-7-7---|-9-9-9-9-9-9-9-9-|-9-9-9-9-9-------|
D|----x-7-x-7-7------|-7-7-7-7-7-7-7---|-9-9-9-9-9-9-9-9-|-9-9-9-9-9---5S7-|
A|-7--x-7-x-7-7-(3)/-|-5-5-5-5-5-5-x---|-7-7-7-7-7-7-7-7-|-7-7-7-7-7-7-5S7-|
E|-5----------x------|-----------------|-----------------|-----------7-x---|


   Am                  D                 Esus2     Em
      PM  PM  PM                   PM
   Q  E E E E E  E     E E E E e E E E   E E E E E E E E   E E E E E E E E
e|----5---5----------|---------------7-|-7-7-7-7-7-7-7-7-|-7-7-7-7-7-7-7-7-|
B|----5---5----------|-7---7---7-----x-|-7-7-7-7-7-8-8-8-|-8-8-8-8-8-8-8-8-|
G|----5---x---x------|-7-7-7-7-7-7-7---|-9-9-9-9-9-9-9-9-|-9-9-9-9-9-9-9-9-|
D|----x-7-x-7-7------|-7-7-7-7-7-7-7---|-9-9-9-9-9-9-9-9-|-9-9-9-9-9-9-9-9-|
A|-7--x-7-x-7-7-(3)/-|-5-5-5-5-5-5-x---|-7-7-7-7-7-7-7-7-|-7-7-7-7-7-7-7-7-|
E|-5----------x------|-----------------|-----------------|-----------------|


   C                      Am
        PM    PM    PM       PM  PM  PM
    Q   E  E  E  E  E E   Q  E E E E E E
e|----------------------|-5--5---5---5---|
B|--8---8-----8-----8-5-|-5--5-5-5-5-5---|
G|--9---9--9--9--9--9-5-|-5--5-5-5-5-5-4-|
D|-10--10-10-10-10-10-7-|-7--7-7-7-7-7---|
A|-10--10-10-10-10-10-7-|-7--------------|
E|--8---8-----8-----8---|-5--------------|


   Bm7          Amadd9
      PM
   Q  E E E E E E   +W           +H     E E E E
e|-5--5---5-5-5-7-|-(7)--------|-(7)------------|
B|-3--3---3-3-3-5-|-(5)--------|-(5)------------|
G|-4--4-4-4-4-4-5-|-(5)--------|-(5)------------|
D|--------------7-|-(7)--------|-(7)------------|
A|----------------|------------|----------------|
E|----------------|------------|----------0-3-4-|


[Verse 2]

   Am                  D                Esus2     Em
      PM  PM  PM          PM  PM  PM
   Q  E E E E E  E     Q  E E E E E E   E E E E E E E E   E E E E E E E E
e|----5---5----------|----------------|-7-7-7-7-7-7-7-7-|-7-7-7-7-7-7-7-7-|
B|----5---5----------|-7--7---7---7---|-7-7-7-7-7-8-8-8-|-8-8-8-8-8-8-8-8-|
G|----5---x---x------|-7--7-7-7-7-7-7-|-9-9-9-9-9-9-9-9-|-9-9-9-9-9-9-9-9-|
D|----x-7-x-7-7------|-7--7-7-7-7-7-7-|-9-9-9-9-9-9-9-9-|-9-9-9-9-9-9-9-9-|
A|-7--x-7-x-7-7-(3)/-|-5--5-5-5-5-5-5-|-7-7-7-7-7-7-7-7-|-7-7-7-7-7-7-7-7-|
E|-5----------x------|----------------|-----------------|-----------------|


   Am                  D                Esus2     Em
      PM  PM  PM          PM  PM  PM
   Q  E E E E E  E     Q  E E E E E E   E E E E E E E E   E E E E E E E E
e|----5---5----------|----------------|-7-7-7-7-7-7-7-7-|-7-7-7-7-7-7-7-7-|
B|----5---5----------|-7--7---7---7---|-7-7-7-7-7-8-8-8-|-8-8-8-8-8-8-8-8-|
G|----5---x---x------|-7--7-7-7-7-7-7-|-9-9-9-9-9-9-9-9-|-9-9-9-9-9-9-9-9-|
D|----x-7-x-7-7------|-7--7-7-7-7-7-7-|-9-9-9-9-9-9-9-9-|-9-9-9-9-9-9-9-9-|
A|-7--x-7-x-7-7-(3)/-|-5--5-5-5-5-5-5-|-7-7-7-7-7-7-7-7-|-7-7-7-7-7-7-7-7-|
E|-5----------x------|----------------|-----------------|-----------------|


   C                    Am                      Bm                  Amadd9
                                                        |-3-|
   Q  a E E a E E E E   E E e a E +E  E S S E   a E E e S S S e e e E   +W
e|--------------------|-----5-5h7-(7)-5-------|-------7---------7---7-|-(7)----|
B|--------------------|-5---5---5-(5)-5-------|-------7-7-------7---5-|-(5)----|
G|----------5s7-5-----|-5-5-5---5-(5)-5-------|-----7---7h9p7---7---5-|-(5)----|
D|--------5-5s7-5---5-|-7-------7-(7)---7p5-7-|-7s9-----------9---9-7-|-(7)----|
A|-3--5s7---------7-5-|-----------------------|-----------------------|--------|
E|--------------------|-----------------------|-----------------------|--------|


          DCmaj7sus2        G/B   G     D             Cmaj7sus2 G/B   G
   +H     H          W                  W                 W
e|-(7)------------|-------------------|-----------------|-----------------|
B|-(5)------------|-------------------|-----------------|-----------------|
G|-(5)------------|-------------------|-----------------|-----------------|
D|-(7)------------|-------------------|-----------------|-----------------|
A|----------------|-------------------|-----------------|-----------------|
E|----------------|-------------------|-----------------|-----------------|
 |
 | Gtr II
 |  H     E E E E    E  E E E E E E E   E E E E E E E E   E E E E E E E E
e|----------------|-------------------|-----------------|-----------------|
B|----------------|-------0-----0---0-|-----3-----------|-----0---------0-|
G|------------2---|-----0-------0-----|---2---2-----2---|---0---0---0-----|
D|--------0-4-----|-(0)-------0-------|-0-------0-4-----|-0-----0-0-------|
A|--------------3-|---------2---------|---------------3-|-------2---------|
E|----------------|---------------3---|-----------------|-------------3---|


[Bridge]

   D             Cmaj7sus2      G/B       G     D               Cmaj7sus2
   H       Q   E  E     +Q    E  E  +Q    Q      H       E  E E  E
e|------------------||------------------------|--------------------|
B|------------------||------------------------|--------------------|
G|----------------9-||--(9)-------------------|-11---------------9-|
D|---------------10-||-(10)---------------5S==|=12--------------10-|
A|---------------10-||-(10)-----10-(10)---5S==|=12---------12-x-10-|
E|----------------8-||--(8)------7--(7)---3S==|=10---------10-x--8-|
 |
 | E E E E E E E  E      E  E E  E   E  E E E    E E E E E  E E  E
e|------------------||------------------------|--------------------|
B|-----3------------||--------0---------0---0-|------3-------------|
G|---2---2-----2----||------0-----------0-----|----2---2------2----|
D|-0-------0-4------||--(0)----------0--------|--0-------0--4------|
A|----------------3-||-----------2------------|------------------3-|
E|------------------||--------------------3---|--------------------|


            G/B       G     D               Cmaj7sus2
    +Q    E  E  +Q    Q      H       E  E E  E
e|------------------------|--------------------|
B|------------------------|--------------------|
G|--(9)-------------------|-11---------------9-|
D|-(10)---------------5---|-12---------12---10-|
A|-(10)-----10-(10)---5---|-12---------12---10-|
E|--(8)------7--(7)---3---|-10---------10----8-|
 |
 |   E  E E  E   E  E E E    E E E E E  E E  E
e|------------------------|--------------------|
B|--------0-------------0-|------3-------------|
G|------0----0------0-----|----2---2------2----|
D|---0-------0---0--------|--0-------0--4------|
A|-----------2------------|------------------3-|
E|--------------------3---|--------------------|


            G/B    G     D                Cmaj7sus2
    +Q    E  E Q   Q      H       E  E  E  E
e|---------------------|-10------------------|
B|---------------------|-10------------------|
G|--(9)----------------|-11----------------9-|
D|-(10)---x--------5---|-12---------12-12-10-|
A|-(10)---x-10-----5---|-12---------12-12-10-|
E|--(8)---x--7-----3---|-10---------10-10--8-|
 |
 |   E  E E  E E E E E    E E E E E  E  E  E
e|---------------------|---------------------|
B|--------0------0---0-|------3--------------|
G|------0--------0-----|----2---2-------2----|
D|--(0)--------0-------|--0-------0--4-------|
A|-----------2---------|-------------------3-|
E|-----------------3---|---------------------|


           G/B       G     D                 Cmaj7sus2     G/B     G
                                     PM---|
   +Q    E  E  +Q    Q      Q   Q    E  E  E  E    +Q    E E +Q    Q
e|------------------------|--------------------8-|--(8)---x-7-(7)-------|
B|------------------------|-10-----------------8-|--(8)---x-8-(8)-------|
G|--(9)-------------------|-11-----------------9-|--(9)---x-7-(7)-------|
D|-(10)---------------5S==|=12---x---12-12-12-10-|-(10)---x-9-(9)---5S==|
A|-(10)-----10-(10)---5S==|=12---x---12-12-12-10-|-(10)-------------5S==|
E|--(8)------7--(7)---3S==|=10---x---10-10-10--8-|--(8)-------------3S==|
 |
 |   E  E E  E   E  E E E    E E E E  E  E  E  E     E  E E E  E  E E E
e|------------------------|----------------------|----------------------|
B|--------0-------------0-|------3---------------|--------0-------0---0-|
G|------0----0------0-----|----2---2--------2----|------0---------0-----|
D|---0-------0---0--------|--0--------0--4-------|--(0)--------0--------|
A|-----------2------------|--------------------3-|----------2-----------|
E|--------------------3---|----------------------|------------------3---|


   D                               Cmaj7sus2
   Gtr III
                                    ~~~~~~~
    Q    E       E   E       E   E  E
e|------------------------------10-------||
B|------13pb15r(13)-13pb15r(13)----13b15-||
G|---------------------------------------||
D|---------------------------------------||
A|---------------------------------------||
E|---------------------------------------||
 |
 | Gtr I
 |  Q    Q           E       E   E  E
e|-10------------------------------------||
B|-10------------------------------------||
G|-11-------------------------------9----||
D|-12-----------------------12--12-10----||
A|-12-----------------------12--12-10----||
E|-10-----------------------10--10--8----||
 |
 | Gtr II
 |  E E  E       E   E       E   E  E
e|---------------------------------------||
B|-------3-------------------------------||
G|----2----------2---------------2-------||
D|--0----------------0-------4-----------||
A|----------------------------------3----||
E|---------------------------------------||


[Solo]
                      G/B               G                   D                         Cmaj7sus2
  ~~~~~~                                                                                    ~~
    +Q     S       S   E   S      S   E  S       S   E        E   E  a  E  E  E  E      E   E
e|-----------------------------------10-------------------|---------------10----12b13-(12)-10-|
B|-(13)---13pb15r(13)-10----------------------------------|------------------10---------------|
G|------------------------12b14-(14)----12pb14r(12)-10b11-|-(11)----10-11---------------------|
D|--------------------------------------------------------|------12---------------------------|
A|--------------------------------------------------------|-----------------------------------|
E|--------------------------------------------------------|-----------------------------------|
 |
 |  +Q     E           E  +Q             Q                    H               E  E      E   E
e|--------------------------------------------------------|-----------------------------------|
B|--------------------------------------------------------|-----------------------------------|
G|--(9)---------------------------------------------------|--11-----------------------------9-|
D|-(10)----------------------------------5----------------|--12-----------------12---------10-|
A|-(10)---------------10-(10)------------5----------------|--12-----------------12---------10-|
E|--(8)----------------7--(7)------------3----------------|--10-----------------10----------8-|
 |
 |   E  E  E           E   E          E  E           E        E   E     E  E  E  E      E   E
e|--------------------------------------------------------|-----------------------------------|
B|---------0--------------------------0--------------0----|-------------3---------------------|
G|------0-----------------------------0-------------------|-------2--------2------------2-----|
D|--(0)--------------------0------------------------------|---0---------------0--4------------|
A|---------------------2----------------------------------|---------------------------------3-|
E|---------------------------------------3----------------|-----------------------------------|


           G/B                  G             D                                      Cmaj7sus2
     ~~~~                              ~~~~~~~~~~~~                                   ~~~
    +E   E  Q        E     E     E     E       +Q     E  E  S       S   S  S  +S   S  E
e|-(10)----13b15----13b15-13b14-13b15-13b14-|-(13)---10----12pb13r(12)p10-12-(12)-10-12-|
B|------12----------------------------------|-----------10------------------------------|
G|------------------------------------------|-------------------------------------------|
D|------------------------------------------|-------------------------------------------|
A|------------------------------------------|-------------------------------------------|
E|------------------------------------------|-------------------------------------------|
 |
 |  +Q      E     E  Q           Q              H           E           E      E      E
e|------------------------------------------|--10---------------------------------------|
B|------------------------------------------|--10---------------------------------------|
G|--(9)-------------------------------------|--11-------------------------------------9-|
D|-(10)-----x--------------------5----------|--12----------------------12-----12-----10-|
A|-(10)-----x----10--------------5----------|--12----------------------12-----12-----10-|
E|--(8)-----x-----7--------------3----------|--10----------------------10-----10------8-|
 |
 |   E   E  E     E  E     E     E     E        E  E  E  E  E           E      E      E
e|------------------------------------------|-------------------------------------------|
B|----------0--------------------------0----|---------3---------------------------------|
G|-------0--------0--------0----------------|------2-----2---------------------2--------|
D|---0------------0--0----------------------|---0-----------0-----------4---------------|
A|----------------2-------------------------|-----------------------------------------3-|
E|-------------------------------3----------|-------------------------------------------|


             G/B              G
 ~~~~~~                                   ~~
                           |--3---|
   +E   e  E  E      +E    S   S  S  +E   E
e|-(12)-10----12b13==(12)r(12)p10h12-(12)-10-|
B|---------10--------------------------------|
G|-------------------------------------------|
D|-------------------------------------------|
A|-------------------------------------------|
E|-------------------------------------------|
 |
 |  +Q      E  E      +Q               Q
e|-------------------------------------------|
B|-------------------------------------------|
G|--(9)--------------------------------------|
D|-(10)--------------------------------5-----|
A|-(10)-------10-----(10)--------------5-----|
E|--(8)--------7------(7)--------------3-----|
 |
 |   E   E  E  E       E    E          E   E
e|-------------------------------------------|
B|----------0---------------0--------------0-|
G|-------0------------------0----------------|
D|--(0)----------------0---------------------|
A|-------------2-----------------------------|
E|-------------------------------------3-----|


   D                                       Cmaj7sus2       G/B               G
     ~~~~            ~~~~~~~                                ~~
    +E   S  S  E  a  E  +E   E  S       S   E       +E   e  Q     S       S   E  E  E
e|-(10)-------10------------14-15pb17r(15)p13b14-|-(13)------------------------------------|
B|------10h12----12s15-(15)----------------------|------15-15----15pb16r(15)p13-15-13b13.5-|
G|-----------------------------------------------|-----------------------------------------|
D|-----------------------------------------------|-----------------------------------------|
A|-----------------------------------------------|-----------------------------------------|
E|-----------------------------------------------|-----------------------------------------|
 |
 |   H                   E   E  E           E       +Q      E  E  Q              Q
e|-----------------------------------------------|-----------------------------------------|
B|-----------------------------------------------|-----------------------------------------|
G|--11--------------------------------------9----|--(9)------------------------------------|
D|--12----------------------12-------------10----|-(10)-----x--------------------5---------|
A|--12----------------------12-------------10----|-(10)-----x-10-----------------5---------|
E|--10----------------------10--------------8----|--(8)-----x--7-----------------3---------|
 |
 |   E   E     E     E   E   E  E           E        E   E  E  E  E           E  E  E
e|-----------------------------------------------|-----------------------------------------|
B|-------------3---------------------------------|----------0-----------------------0------|
G|-------2-----------2----------2----------------|-------0-----0--------------0------------|
D|---0-------------------0---4-------------------|---0---------0--0------------------------|
A|------------------------------------------3----|-------------2---------------------------|
E|-----------------------------------------------|-------------------------------3---------|


   D                                      Cmaj7sus2
    E  E     E     E     E     E     S     S  E
e|----15b17-15b17-15b17-15b17-15b17-15b17r15p13b13.5-|
B|-15------------------------------------------------|
G|---------------------------------------------------|
D|---------------------------------------------------|
A|---------------------------------------------------|
E|---------------------------------------------------|
 |
 |  H                    E     E     E        E
e|-10------------------------------------------------|
B|-10------------------------------------------------|
G|-11-----------------------------------------9------|
D|-12-------------------------12----12-------10------|
A|-12-------------------------12----12-------10------|
E|-10-------------------------10----10--------8------|
 |
 |  E  E     E     E     E     E     E        E
e|---------------------------------------------------|
B|-----------3---------------------------------------|
G|-----2-----------2-----------------2---------------|
D|--0--------------------0-----4---------------------|
A|--------------------------------------------3------|
E|---------------------------------------------------|


                G/B           G
                                       ~~~
     E   E    E  E   E      E  S   S   E
e|-(13)--------------------17------------|
B|------15\-----15--17b19=====17r(17)-15-|
G|----------/15--------------------------|
D|---------------------------------------|
A|---------------------------------------|
E|---------------------------------------|
 |
 |  +Q        E  E  +Q         Q
e|---------------------------------------|
B|---------------------------------------|
G|--(9)----------------------------------|
D|-(10)------------------------5---------|
A|-(10)---------10-(10)--------5---------|
E|--(8)----------7--(7)--------3---------|
 |
 |   E   E    E  E   E      E  E       E
e|---------------------------------------|
B|------------0-------------0----------0-|
G|-------0------------------0------------|
D|--(0)--------------0-------------------|
A|---------------2-----------------------|
E|-----------------------------3---------|


   D                                    Cmaj7sus2            G/B   G
  ~~~~~~                                       ~~~~        ~~       ~~~~~
    +E   Q        E   S      S    E   E  E     Q     S  S  E  S  S  E  E  E
e|------17b19r==(17)-----------------------|--------------------------------|
B|-(15)--------------17b18r(18)-(17)-15----|--15-------15-15----15-15-15----|
G|--------------------------------------16-|--------16-------16----------16-|
D|-----------------------------------------|--------------------------------|
A|-----------------------------------------|--------------------------------|
E|-----------------------------------------|--------------------------------|
 |
 |   H                E           E   E  E    +Q     E     E  Q        Q
e|-----------------------------------------|--------------------------------|
B|-----------------------------------------|--------------------------------|
G|--11-----------------------------------9-|--(9)---------------------------|
D|--12---------------------------12-----10-|-(10)----x-----------------5----|
A|--12---------------------------12-----10-|-(10)----x----10-----------5----|
E|--10---------------------------10------8-|--(8)----x-----7-----------3----|
 |
 |   E   E    E   E   E           E   E  E     E  E  E     E  E     E  E  E
e|-----------------------------------------|--------------------------------|
B|------------3----------------------------|---------0--------------------0-|
G|-------2--------2-------------------2----|------0--------0--------0-------|
D|---0----------------0-----------4--------|---0-----------0--0-------------|
A|---------------------------------------3-|---------------2----------------|
E|-----------------------------------------|---------------------------3----|


   D                                           Cmaj7sus2
    E      E  E  E       +S   S  E     S  E        S
e|---------------------------------------------------|
B|-17b19-(19)---19b20.5-(19)-19-19b20-19-19b20----19-|
G|---------------------------------------------------|
D|---------------------------------------------------|
A|---------------------------------------------------|
E|---------------------------------------------------|
 |
 |  H                     E      E     E        E
e|-10------------------------------------------------|
B|-10------------------------------------------------|
G|-11-------------------------------------------9----|
D|-12---------------------------12----12-------10----|
A|-12---------------------------12----12-------10----|
E|-10---------------------------10----10--------8----|
 |
 |  E      E  E  E        E      E     E        E
e|---------------------------------------------------|
B|------------3--------------------------------------|
G|---------2-----2---------------------2-------------|
D|--0---------------------0------4-------------------|
A|----------------------------------------------3----|
E|---------------------------------------------------|


                     G/B               G              D
                                                       ~~
             |--3--|
  E      E   S  S  S  E    E   S  S  a  S  S  S  S     Q     S  S  S  S   S   S  a  S  S  S  S  S  s
e|---------------------------------------------------|-------------10-10-(10)-10---------------------|
B|19b20r(19)-15-17-15----------13--------------------|-------10h12----10h=12-----------------------10|
G|--------------------16\-/14-----14-14S12-10--------|---------------------------13p12p10----10----10|
D|--------------------------------------------12p(9)-|-12---------------------------------12----12-10|
A|---------------------------------------------------|-----------------------------------------------|
E|---------------------------------------------------|-----------------------------------------------|
 | 
 |+Q          E        E   +Q            Q              E  E  E     E      E         E     E     E
e|---------------------------------------------------|-----------------------------------------------|
B|---------------------------------------------------|-----------------------------------------------|
G|(9)------------------------------------------------|-11-11-11----11--------------------------------|
D|(10)------------------------------------5-----------|-12-12-12----12-----12--------11----10-----9---|
A|(10)-----------------10--(10)-----------5-----------|-12-12-12----12-----12--------11----10-----9---|
E|(8)------------------7---(7)-----------3-----------|-10-10-10----10-----10---------9-----8-----7---|
 |
 | E      E   E        E    E   E        E     E        E  E  E     E      E         E     E     E
e|---------------------------------------------------|-----------------------------------------------|
B|------------0-----------------0--------------0-----|--------3--------------------------------------|
G|--------0---------------------0--------------------|-----2-----------------------------------------|
D|(0)-----------------------0------------------------|--0-----------0------0-------------------------|
A|---------------------2-----------------------------|-------------------------------4-----3-----2---|
E|---------------------------------------3-----------|-----------------------------------------------|


[Verse 3]

   Am                D                 Esus2           Em
    H.        Q      W                 Q    E  E  E  E  E  E
e|----------------||-----------------|--------12----12-12----|
B|----------------||-----------------|--------------------12-|
G|----------------||-----------------|-----14----14----------|
D|----------------||-----------------|-----------------------|
A|-12-------------||-----------------|-----------------------|
E|----------------||-----------------|-----------------------|
 |
 |        PM  PM                 PM
 |  H     E E E E    E E E E e E E E   E E  E  E  E  E  E  E
e|--------5---5---||---------------7-|-7-7--7--7--7--7--7--7-|
B|--------5---5---||-7---7---7-----x-|-7-7--7--7--7--8--8--8-|
G|--------5-5-5-5-||-7-7-7-7-7-7-7---|-9-9--9--9--9--9--9--9-|
D|--7-----7-7-7-7-||-7-7-7-7-7-7-7---|-9-9--9--9--9--9--9--9-|
A|--7-------7---7-||-5-5-5-5-5-5-x---|-7-7--7--7--7--7--7--7-|
E|--5-------------||-----------------|-----------------------|
 |
 |  W                W                 W
e|----------------||-----------------|-----------------------|
B|----------------||-----------------|-----------------------|
G|----------------||-----------------|-----------------------|
D|----------------||-----------------|-----------------------|
A|--0-------------||-----------------|-----------------------|
E|----------------||-----------------|-----------------------|


                                        Am                    D
                                         ~~
    E  E  E  E  E     E  S      S   E    Q   e E H            W
e|-14-------15------------------------|---------------------|-----------------|
B|----11s12----------12---------------|-----12--------------|-----------------|
G|-------------14b16----14b16r(14)-12-|-14--12--------------|-----------------|
D|------------------------------------|---------------------|-----------------|
A|------------------------------------|---------------------|-----------------|
E|------------------------------------|---------------------|-----------------|
 |
 |                                           PM  PM  PM                   PM
 |  E  E  E  E  E     E  E          E    Q   E E E E E  E     E E E E e E E E
e|--7--7--7--7--7---------------------|------5---5----------|---------------7-|
B|--8--8--8--8--8---------------------|------5---5----------|-7---7---7-----x-|
G|--9--9--9--9--9---------------------|------5---x---x------|-7-7-7-7-7-7-7---|
D|--9--9--9--9--9--------5S=========7-|------x-7-x-7-7------|-7-7-7-7-7-7-7---|
A|--7--7--7--7--7-----7--5S=========7-|--7---x-7-x-7-7-(3)/-|-5-5-5-5-5-5-x---|
E|--------------------7--x------------|--5-----------x------|-----------------|


   Esus2          Em
   H        E       E   e  E
e|-------------------------------|
B|---------15pb17r(15)-12--------|
G|------------------------14pb16r|
D|-------------------------------|
A|-------------------------------|
E|-------------------------------|
 |
 | E E E E  E       E   E  E
e|-7-7-7-7--7-------7---7--7-----|
B|-7-7-7-7--7-------8---8--8-----|
G|-9-9-9-9--9-------9---9--9-----|
D|-9-9-9-9--9-------9---9--9-----|
A|-7-7-7-7--7-------7---7--7-----|
E|-------------------------------|


                                     C
                                      ~~~~~~~~~~~~~~~
     E   E  E  E  S  S  E  S  S  E    H         +Q       Q
e|---------------------------------|--------------------------|
B|---------------------------------|--------------------------|
G|-(14)-12-------------------------|--------------------------|
D|---------14-12-------------------|-10--------(10)\----------|
A|---------------13s12-10-12p10----|--------------------------|
E|------------------------------12-|--------------------------|
 |
 |                                        PM     PM
 |   E   E  E  E  E     E  E     E    Q   E  E   E    E  E E
e|---7---7--7--7--7-----7--7-----7-|--------------------------|
B|---8---8--8--8--8-----8--8-----8-|--8---8------8-------8-5--|
G|---9---9--9--9--9-----9--9-----9-|--9---9--9---9----9--9-5--|
D|---9---9--9--9--9-----9--9-----9-|-10--10-10--10---10-10-7--|
A|---7---7--7--7--7-----7--7-----7-|-10--10-10--10---10-10-7--|
E|---------------------------------|--8---8------8-------8----|


   Am                        Bm7                Amadd9
   W                         Q  E a  E  e  e  e  E    +W
e|-------------------------|-----------10-12-10-12-|-(12)----*|
B|-------------------------|-----------10-12-10-12-|-(12)----*|
G|-------------------------|------9s11-------------|---------*|
D|-------------------------|-----------------------|---------*|
A|-------------------------|-----------------------|---------*|
E|-------------------------|-----------------------|---------*|
 |
 | E S S E S S E S S E S S   Q  E    E  E  E  E  E    +W
e|-5-x-5-5-x-5-5-x-5-5-x-5-|-5--5-------5--5--5--7-|--(7)----*|
B|-5-x-5-5-x-5-5-x-5-5-x-5-|-3--3-------3--3--3--5-|--(5)----*|
G|-5-x-5-5-x-5-5-x-5-5-x-5-|-4--4----4--4--4--4--5-|--(5)----*|
D|-7---7-7---7-7---7-7---7-|---------------------7-|--(7)----*|
A|-7-----7-----7-----7-----|-----------------------|---------*|
E|-5-----5-----5-----5-----|-----------------------|---------*|


************************************

| x    Dead note
| (n)  Ghost note
| h    Hammer-on
| p    Pull-off
| r    Release
| b    Bend
| pb   Pre-bend
| /    Slide up
| \    Slide down
| s    Slide

************************************
Suggest correction
comments
print report bad tab
7 comments total. Showing first comments.
0 reply
bonjovi2005 10 Mar 25, 2006 02:02 PM

really good job

0 reply
fligi3 10 Nov 22, 2006 11:58 PM

Did Harrison really co-write this? I'm not calling you a liar; I just did not know that. Good tab by the way. It seems to be pretty accurate.

0 reply
cuominator 10 Dec 01, 2006 03:34 PM

harrison made the riff i dont think i heard that he wrote it

guest
You may want to rate the tab now too:
select rating
Wanna post a correction for this tab? Suggest correction