Oops, an error
Loading. Please wait.
We have an official Badge tab made by UG professional guitarists. Check out the tab »
×
by Cream
5,883 views 6 this week
1 commentread comment
1 2 3 4 5
1 last vote to show rating
add to favorites
×
Save as Personal and add changes to this tab that will be seen only by you. Learn more ›
×
You can save this tab as Personal to edit and correct it or add notes. All changes will be seen only by you. Learn more »
launch autoscroll
font size
0
reset
how to read this tab
guitar tuner
backing track
0:00
0:00
edit
Autoscroll
slow
fast
+/-
esc
set tempo
stop
Author
Difficulty
                                                Badge
                                                Cream
                                               Goodbye


Intro (Guitar I is really the bass):

 Guitar I
|------------------------|------------------------|
|------------------------|------------------------|
|------------------------|------------------------|
|--------2---------------|--------2---------------|
|-0---3-----3-/5-5-5-5-5-|-0---3-----3-/5-5-5-5-5-|
|------------------------|------------------------|
|                                                 |
|                                                 |
|Guitar II                                        |
|------------------------|------------------------|
|-x--x--x--x--x--x--x--x-|-x--x--x--x--x--x--x--x-|
|-x--x--x--x--x--x--x--x-|-x--x--x--x--x--x--x--x-|
|-x--x--x--x--x--x--x--x-|-x--x--x--x--x--x--x--x-|
|-x--x--x--x--x--x--x--x-|-x--x--x--x--x--x--x--x-|
|------------------------|------------------------|


(Tab synchronizes with lyrics)
Am                       G                          Em
  Thinkin' 'bout the the times that you drove in my car

Am                G                    Em
  Thinkin' that I might have drove you too far

Cmaj7                        Em                        Bm
  And I'm thinkin' 'bout the love that you laid on the table
|-----------------------------------------------------------------7-------------------|
|-----------------------------------------------------------------8-------------------|
|-----------------------------------------------------------------9-------------------|
|-----------------------------------------------------------------10------------------|
|-------------------------------------------------------------------------------------|
|----------------------------------------------------------------------------0-3-4-5--|
                                                                 Cmaj7

Am                G                    Em
  Told you not to wander 'round in the dark

Am                   G                          Em
  Told you 'bout the swans that may live in the park

Cmaj7                    Em                       Bm
  And I told you 'bout a kid, now he's married to Maybell
|--------------------------------------------------------7----------------7----------|
|--------------------------------------------------------7--7--------7----8----------|
|------------------------------------------------------7----7h9p7----7----9----------|
|----------------------------------------------------9------------9----9--10---------|
|------------------------------------------------------------------------------------|
|------------------------------------------------------------------------------------|



|--------------------------------------|--------------------------------------|
|-----------------0------0---0-----3---|-----------------0------0---0-----3---|
|-------2------0-------0---------2---2-|-------2------0-------0---------2---2-|
|-0--4-------------------------0-------|-0--4-------------------------0-------|
|----------3---------2-----------------|----------3---------2-----------------|
|--------------------------3-----------|--------------------------3-----------|

D       Cmaj7             G         D         
  Yes I told you that the life goes up and down

D           Cmaj7          G           D
  Don't you notice how the wheel goes 'round

D         Cmaj7           G       D
  And you better pick yourself up off the ground

  Cmaj7               G       D
Before they bring the curtain down

D       Cmaj7               G       D
 Yes, before they bring the curtain down


Guitar Solo:
|---------------10--10--------------------10-------------------------10------13b12--10-|
|-15b13--15b13-------------13--10---------------------------------------10-------------|
|----------------------------------12b14------14b12-10---------10h11-------------------|
|----------------------------------------------------------12--------------------------|
|--------------------------------------------------------------------------------------|
|--------------------------------------------------------------------------------------|

|-----13b15----15--14--15--14----10--------14p12p10-12---10-12--10-------12b14---10h12-10-|
|-12---------------------------------10------------------------------10-------------------|
|-----------------------------------------------------------------------------------------|
|-----------------------------------------------------------------------------------------|
|-----------------------------------------------------------------------------------------|
|-----------------------------------------------------------------------------------------|

|---------------17b15-14------15b17-15b17-15b17-15b17-15b17-15b17--17b15-14-----|
|-------15-15--------------15-----------------------------------------------15\-|
|-14h16-------------------------------------------------------------------------|
|-------------------------------------------------------------------------------|
|-------------------------------------------------------------------------------|
|-------------------------------------------------------------------------------|

|---------------17--------------19b17-------------------------------------------------------|
|-----15--17b19-----19b17-15-----------19b17-15----15-------15-15------15-15---15-----17b19-|
|-/16-------------------------------------------16-------16---------16------------16--------|
|-------------------------------------------------------------------------------------------|
|-------------------------------------------------------------------------------------------|
|-------------------------------------------------------------------------------------------|

|-14b15b14b15-14-15-14-15-----------------------------------------10-------10----------------------|
|--------------------------15h17p15-----10--13p10-----------10h12----10h12----10-------------------|
|-----------------------------------16\------------12-10--------------------------10-12-10---------|
|-------------------------------------------------------12--------------------------------12-10----|
|-----------------------------------------------------------------------------------------------12-|
|--------------------------------------------------------------------------------------------------|


Am                    G                          Em
  I'm talkin' 'bout a girl that looks quite like you
|--------------------------------------------------------12-------12-12----14----14-15-------------|
|--------------------------------------------------------------------------------------------------|
|--------------------------------------------------14b16----14b16-------16----16-------16p14----14-|
|--------------------------------------------------------------------------------------------------|
|--------------------------------------------------------------------------------------------------|
|--------------------------------------------------------------------------------------------------|

Am                    G                   Em
  She didn't have the time to wait in the cue
|----------------------------------------------12-b-10-7-----------------------------|
|---------------------------------------------------------12-b-10-8------------------|
|-------------------------------------------------------------------9-p7-------------|
|------------------------------------------------------------------------9p7------10-|
|----------------------------------------------------------------------------10------|
|------------------------------------------------------------------------------------|

Cmaj7                Em                          Bm
  She cried away her life sense she fell off the cradle
|-------------------------------------------------------------10---12---10---7--|
|--------------------------------------------------------7/10-10---12---10---8--|
|----------------------------------------------------------------------------9--|
|----------------------------------------------------------------------------10-|
|-------------------------------------------------------------------------------|
|-------------------------------------------------------------------------------|

            
            
Suggest correction
Creating personal tab
Creating personal tab
You can edit any tab online and save it as your Personal.

You can edit, replace or remove any tab part or add personal notes – all changes will be seen only by you.

Personal tabs can be accessed anytime from any device, even offline.
Learn more »
Give kudos to tab author, rate the tab!
1 2 3 4 5
comments
print report bad tab
1 comment total.
0 reply
paranoid70 51 Sep 01, 2010 07:38 PM

I think the G in the verse should be D.

guest
You may want to rate the tab now too:
select rating
Wanna post a correction for this tab? Suggest correction