Oops, an error
Loading. Please wait.
We have an official Crossroads tab made by UG professional guitarists. Check out the tab »
×
by Cream
42,854 views 51 this week
no commentswrite comment
1 2 3 4 5
x 7
add to favorites
×
Save as Personal and add changes to this tab that will be seen only by you. Learn more ›
×
You can save this tab as Personal to edit and correct it or add notes. All changes will be seen only by you. Learn more »
launch autoscroll
font size
0
reset
how to read this tab
guitar tuner
backing track
0:00
0:00
edit
Autoscroll
slow
fast
+/-
esc
set tempo
stop
Author
Difficulty
intermediate
Crossroads (Solo) (Robert Johnson)
Cream
Wheel's Of Fire

[1st Solo](01:27)
e|------------------------------------------------5---5---5---------|
B|----------------------------------------2---5h7---7-5-7-5-5---5---|
G|-----2-2----2----2----4b6-------2---2h4-------------------7-5h6---|
D|-2h4-----4-----4----4-------2h4---4-----------------------------7-|
A|------------------------------------------------------------------|
E|------------------------------------------------------------------|

e|-----------------------5-----------------------------------|
B|-------------------------8-5------------------5-8----------|
G|---------5--7p5----7b9-------5h7--5h7p5---5-7-----5--------|
D|-----5-7--------7-----------------------7------------7p5-7-|
A|-5-7-------------------------------------------------------|
E|-----------------------------------------------------------|

e|--------------8-10------------8-------8----------------------------------|
B|-------10-10-------10---8h10----8h10---------------------5---------------|
G|-----9-----------------------------------9\7--5--7p5---6---7-6-----------|
D|-/11-------------------------------------------------7---------7---------|
A|-----------------------------------------------------------------7-5-----|
E|---------------------------------------------------------------------7-5-|

e|-----5--------------------------|
B|---5---8p5---5------------------|
G|-6---------7---7p5----------6---|
D|-------------------7--7p5-5-----|
A|------------------------------7-|
E|--------------------------------|

e|-9---------8--10-10b12-8-------8-------------------------------------8-|
B|----10-------------------10-10---------8-8-8----------------8-8-8-10---|
G|-----------------------------------7h9-------7-5--------7h9------------|
D|-------------------------------------------------7p5-7-----------------|
A|-----------------------------------------------------------------------|
E|-----------------------------------------------------------------------|

e|------------------------------------------------------------|
B|---15b17-15b17-15b17-15b17-13-15-----13---17-b-15-----------|
G|---------------------------------14----------------14p12-14-|
D|------------------------------------------------------------|
A|------------------------------------------------------------|
E|------------------------------------------------------------|

e|-------------------------------------------------------------------------|
B|-----8-8-8---------------5------5-5---5-5-5-7p5---5------5---5-7b9-7b9-5-|
G|-7h9-------7-5-7p5---5-7----5h7-----7-----------7----5h7---7-------------|
D|-------------------7-----------------------------------------------------|
A|-------------------------------------------------------------------------|
E|-------------------------------------------------------------------------|

e|-----------------|
B|-----------------|
G|-----0h2-2p0-----|
D|-0h2---------2-0-|
A|-----------------|
E|-----------------|

[2nd Guitar Solo](02:32)
e|-----------------------------------------15----15----------15----15----|
B|-/15--17-17-17-17--/17--17-17-17-17--/17----17----17---/17----17----17-|
G|-----------------------------------------------------------------------|
D|-----------------------------------------------------------------------|
A|-----------------------------------------------------------------------|
E|-----------------------------------------------------------------------|

e|-15b17---17-15-12-------------------12-17-15p12-----------|
B|------------------15-13-15----13-15-------------15-13-----|
G|---------------------------14--------------------------14-|
D|----------------------------------------------------------|
A|----------------------------------------------------------|
E|----------------------------------------------------------|

e|-20b22-20-17h20p17----17------------17----------------------------------|
B|-------------------19-----19-20b22-----20----------------------17-------|
G|------------------------------------------19b21-17-19----17-19----19-17-|
D|------------------------------------------------------19----------------|
A|------------------------------------------------------------------------|
E|------------------------------------------------------------------------|

e|----------------------------------|
B|----------------------------------|
G|-17-----17-17--17-17-------17-17--|
D|-----19-17h19--19----19-17--------|
A|----------------------------------|
E|----------------------------------|

e|---------------------------------------------------|
B|---------------------------------------------------|
G|-17-17-----17----17-17-17----17----17-----------17-|
D|-17h19--19----19----17h19-19----19----17-17--17----|
A|--------------------------------------17h19--19----|
E|---------------------------------------------------|

e|---------------------------------------|
B|------------------------------17----17-|
G|----17-x-17-19-17b18----------19b21----|
D|-17h19-x-19----------19p17h19----------|
A|---------------------------------------|
E|---------------------------------------|

e|------------------------------------15-----------------------|
B|-/17--17-17-17-17--/15--17-17-17-17----17-15h17-13h15-13-----|
G|----------------------------------------------------------14-|
D|-------------------------------------------------------------|
A|-------------------------------------------------------------|
E|-------------------------------------------------------------|

e|-15b17----------------------------12-15-17-17--17-15-15b17-17-|
B|-------13-15-13----------13-13--------------------------------|
G|----------------14p12----12-12--------------------------------|
D|----------------------14-------14-----------------------------|
A|--------------------------------------------------------------|
E|--------------------------------------------------------------|

e|-17-15-17p15----20b22-20--17----17-17---17-------------------------|
B|-------------17--------------20------------20-17-20----------------|
G|----------------------------------------------------19b21-17-19----|
D|----------------------------------------------------------------19-|
A|-------------------------------------------------------------------|
E|-------------------------------------------------------------------|

e|----------------------------------------------------|
B|-17b19b17-15-17-15-------------17-19----------------|
G|-------------------17h19p17----17-19-------17-19----|
D|----------------------------19-------19-19-------19-|
A|----------------------------------------------------|
E|----------------------------------------------------|

e|-----------------------------------------------|
B|-----17-----17-----17--------------------------|
G|-19-----18-----18--------------------17--17----|
D|----------------------19b17----17-19--------19-|
A|----------------------------19-----------------|
E|-----------------------------------------------|

e|-15p12----15p12----15p12----15p12----15b17-17-15-12-15p12----12-------------------|
B|-------15-------15-------15-------15----------------------15----15-13-15p13----13-|
G|----------------------------------------------------------------------------14----|
D|----------------------------------------------------------------------------------|
A|----------------------------------------------------------------------------------|
E|----------------------------------------------------------------------------------|

e|-----------------------------------------------|
B|-13--13--13--13--13-13-13-13-13-13-13-13-13-13-|
G|-12--14--12--14--12-14-12-14-12-14-12-14-12-14-|
D|-----------------------------------------------|
A|-----------------------------------------------|
E|-----------------------------------------------|

e|-------------------------------------------------------------------|
B|-17--17--17--17--17--17--17--17-17-17-17---20---20---20---20-------|
G|-17--19--17--19--17--19--17--19-17-19-17-19---19---19---19---19-17-|
D|-------------------------------------------------------------------|
A|-------------------------------------------------------------------|
E|-------------------------------------------------------------------|

e|----------------------------------------------------|
B|---------------------------20p17-----20p17----20b22-|
G|-17-----17-17-17-----17-17-------19--------19-------|
D|-17h19--------17h19---------------------------------|
A|----------------------------------------------------|
E|----------------------------------------------------|

e|-17-------------17-------------17--|
B|----20-17-20b22----20-17-20b22-----|
G|-----------------------------------|
D|-----------------------------------|
A|-----------------------------------|
E|-----------------------------------|

e|-------------17-----------------------------------------|
B|-20-17-20b22----20-17-----------------------------------|
G|-----------------------------19b21b19--17-----19--17b18-|
D|------------------------------------------19-(19)-------|
A|--------------------------------------------------------|
E|--------------------------------------------------------|

e|-------------------17-------------------------|
B|----------------17----20p17----17-------------|
G|----------17h18-------------19----17h19p17b18-|
D|-19p17-19-------------------------------------|
A|----------------------------------------------|
E|----------------------------------------------|

e|----19b21---19b21b19-17-19------17-----17-17-17-17----19b21--|
B|---------------------------19-------19-------------18--------|
G|-------------------------------------------------------------|
D|-19----------------------------------------------------------|
A|-------------------------------------------------------------|
E|-------------------------------------------------------------|

e|----20b22--20-17h20p17----17-17-|
B|-17--------------------20-------|
G|--------------------------------|
D|--------------------------------|
A|--------------------------------|
E|--------------------------------|

e|--------17------------------------------------|
B|-20b22-----20-17------------------------17----|
G|-----------------19b21b19-17-19p17----18------|
D|------------------------------------19--------|
A|-------------------------------------------19-|
E|----------------------------------------------|

************************************

| h    Hammer-on
| b    Bend
| p    Pull-off
| \    Slide down
| /    Slide up
| x    Dead note
| (n)  Ghost note

************************************

            
            
Suggest correction
Creating personal tab
Creating personal tab
You can edit any tab online and save it as your Personal.

You can edit, replace or remove any tab part or add personal notes – all changes will be seen only by you.

Personal tabs can be accessed anytime from any device, even offline.
Learn more »
comments
print report bad tab
guest
You may want to rate the tab now too:
select rating
Wanna post a correction for this tab? Suggest correction