Oops, an error
Loading. Please wait.

Im So Glad intro tab

version 1
version 1

Intro

Whole song

Interactive

by Cream
9,261 views 6 this week
4 commentsread comments
1 2 3 4 5
x 6
add to favorites
×
Save as Personal and add changes to this tab that will be seen only by you. Learn more ›
×
You can save this tab as Personal to edit and correct it or add notes. All changes will be seen only by you. Learn more »
launch autoscroll
font size
0
reset
how to read this tab
guitar tuner
edit
Autoscroll
slow
fast
+/-
esc
set tempo
stop
Author
Difficulty
I'm So Glad
(Nehemiah "Skip" James,arr. Cream)
Fresh Cream (1966)

Intro

For the intro, fingerpick it using your thumb and index finger. I'm unsure as to whether 
not Clapton did it this way, but it sounds right any way

|-------------0------0---------------0-------0----------------0------0--------|
|---------------0------0----------------0------0----------------0-------0-----|
|-1--2--3--4-----------------4----3-------------------3----2------------------|
|-----------------------------------------------------------------------------|
|-2--3--4--5-------5------5-------4--------4------4--------3-------3-------3--|
|-----------------------------------------------------------------------------|

|---------0------0-------|
|-----------0------0-----|
|-2----1-----------------|
|------------------------|
|------2-------2------2--|
|------------------------|

Then all of that's repeated, it goes into the verses and chorus, goes into a solo, and 
to this and a final verse. I'll get round to tabbing it all out someday....

            
            
Suggest correction
Creating personal tab
Creating personal tab
You can edit any tab online and save it as your Personal.

You can edit, replace or remove any tab part or add personal notes – all changes will be seen only by you.

Personal tabs can be accessed anytime from any device, even offline.
Learn more »
comments
print report bad tab
4 comments total. Showing first comments.
0 reply
omertachris 10 Jun 05, 2007 10:43 AM

excellent tab! seems right!

0 reply
DitatDeus 10 Jul 30, 2008 07:18 PM

"I'll get round to tabbing it all out someday...."

we're so glad.

0 reply
Vendetta V 758 Aug 16, 2008 11:55 AM

yaeh tab the solo man ;)
anyway pretty usefull thnx ;)

V

guest
You may want to rate the tab now too:
select rating
Wanna post a correction for this tab? Suggest correction