Oops, an error
Loading. Please wait.

Im So Glad tab

version 4
version 4

Whole song

Interactive

by Cream
5,989 views 33 this week
no commentswrite comment
1 2 3 4 5
1 last vote to show rating
add to favorites
×
Save as Personal and add changes to this tab that will be seen only by you. Learn more ›
×
You can save this tab as Personal to edit and correct it or add notes. All changes will be seen only by you. Learn more »
launch autoscroll
font size
0
reset
how to read this tab
guitar tuner
edit
Autoscroll
slow
fast
+/-
esc
set tempo
stop
Author
------------------------------------------------------------------------------------
                                I’m So Glad – Cream
                                    (Skip James)
                                 Fresh Cream [1966]
------------------------------------------------------------------------------------


Tabbed by: varannion
Email:     dm_hughes1@hotmail.com


Tuning: standard

                           Intro

                           G6
e|-----------------------|-------0-(0)-------0-----------0-(0)-|
B|----------------0------|----0--------0-(0)-------0-(0)-------|
G|------------1---2---3--|-4-----------------------------------|
D|-----------------------|-------------------------------------|
A|------------2---3---4--|-5--5-----------5-----5-----------5--|
E|-----------------------|-------------------------------------|



      F#add11                                Fmaj7add#11
e|----------0-(0)-------0-----------0-(0)-|--------0-(0)-------0-----------0-(0)-|
B|-------0--------0-(0)-------0-(0)-------|-----0--------0-(0)-------0-(0)-------|
G|----3-----------------------------------|--2-----------------------------------|
D|----------------------------------------|--------------------------------------|
A|---\4--4-----------4-----4-----------4--|-\3--3-----------3-----3-----------3--|
E|----------------------------------------|--------------------------------------|



      E                                  G6
e|----------0-(0)-------0--------------|-------0-(0)-------0-----------0-(0)-|
B|-------0--------0-(0)----------------|----0--------0-(0)-------0-(0)-------|
G|----1---------------------1---2---3--|-4-----------------------------------|
D|-------------------------------------|-------------------------------------|
A|---\2--2-----------2--2---2---3---4--|-5--5-----------5-----5-----------5--|
E|-------------------------------------|-------------------------------------|



      F#add11                                Fmaj7add#11
e|----------0-(0)-------0-----------0-(0)-|--------0-(0)-------0-----------0-(0)-|
B|-------0--------0-(0)-------0-(0)-------|-----0--------0-(0)-------0-(0)-------|
G|----3-----------------------------------|--2-----------------------------------|
D|----------------------------------------|--------------------------------------|
A|---\4--4-----------4-----4-----------4--|-\3--3-----------3-----3-----------3--|
E|----------------------------------------|--------------------------------------|



      E
e|----------0-(0)-------0-----------0-----|
B|-------0--------0-(0)-------0-(0)----0--|
G|----1-----------------------------------|
D|----------------------------------------|
A|---\2--2-----------2-----2--------------|
E|----------------------------------------|

  Chorus

      E                               D
e|---------------------------------|-----2--x--2----2--2--x--2--2--|
B|---------------------------------|-----3--x--3----3--3--x--3--3--|
G|-------1--x--1----1--1--x--1--x--|--2--2--x--2----2--2--x--2--2--|
D|----2--2--x--2----2--2--x--2--x--|--0----------------------------|
A|----2--2--x--2----2--2--x--2--x--|-------------------------------|
E|----0----------------------------|-------------------------------|



      E             D                 E
e|------------------2--2--x--2--x--|-------------------------------|
B|------------------3--3--x--3--x--|-------------------------------|
G|-------1--x--1----2--2--x--2--x--|-----1--x--1----1--1--1--x--1--|
D|----2--2--x--2-------------------|--2--2--x--2----2--2--2--x--2--|
A|----2--2--x--2-------------------|--2--2--x--2----2--2--2--x--2--|
E|----0----------------------------|--0----------------------------|



      E                               D
e|---------------------------------|-----2--x--2----2--2--x--2--2--|
B|---------------------------------|-----3--x--3----3--3--x--3--3--|
G|-------1--x--1----1--1--x--1--x--|--2--2--x--2----2--2--x--2--2--|
D|----2--2--x--2----2--2--x--2--x--|--0----------------------------|
A|----2--2--x--2----2--2--x--2--x--|-------------------------------|
E|----0----------------------------|-------------------------------|



      E             D                 E
e|------------------2--2--x--2--x--|-------------------------------|
B|------------------3--3--x--3--x--|-------------------------------|
G|-------1--x--1----2--2--x--2--x--|-----1--x--1----1--1--1\-------|
D|----2--2--x--2-------------------|--2--2--x--2----2--2--2\-------|
A|----2--2--x--2-------------------|--2--2--x--2----2--2--2\-------|
E|----0----------------------------|--0----------------------------|

  Verse 1

      E                          F#m11
e|----------0--0--------0-----|--------0--0--------0-----|
B|----------0--0--------0-----|--------0--0--------0-----|
G|----------1--1--------1-----|--2--2--2--2--2--2--2--2--|
D|----2--2--2--2--2--2--2--2--|--4--4--4--4--4--4--4--4--|
A|----2--2--2--2--2--2--2--2--|--4--4--4--4--4--4--4--4--|
E|----0--0--------0--0-----0--|--------------------------|



      G6          F#m11          E
e|----------0--0--------0-----|--------0--0--------0-----|
B|----------0--0--------0-----|--------0--0--------0-----|
G|----4--4--4--4--2--2--2--2--|--------1--1--------1-----|
D|----5--5--5--5--4--4--4--4--|--2--2--2--2--2--2--2--2--|
A|----5--5--5--5--4--4--4--4--|--2--2--2--2--2--2--2--2--|
E|----------------------------|--0--0--------0--0-----0--|



      E                          F#m11
e|----------0--0--------0-----|--------0--0--------0-----|
B|----------0--0--------0-----|--------0--0--------0-----|
G|----------1--1--------1-----|--2--2--2--2--2--2--2--2--|
D|----2--2--2--2--2--2--2--2--|--4--4--4--4--4--4--4--4--|
A|----2--2--2--2--2--2--2--2--|--4--4--4--4--4--4--4--4--|
E|----0--0--------0--0-----0--|--------------------------|



      G6          F#m11          E
e|----------0--0--------0-----|--------0--0--------0-x-x--|
B|----------0--0--------0-----|--------0--0--------0-x-x--|
G|----4--4--4--4--2--2--2--2--|--------1--1--------1-x-x--|
D|----5--5--5--5--4--4--4--4--|--2--2--2--2--2--2--2-x-x--|
A|----5--5--5--5--4--4--4--4--|--2--2--2--2--2--2--2-x-x--|
E|----------------------------|--0--0--------0--0---------|

 Chorus

      E                               D
e|---------------------------------|-------------------------------|
B|-------9--x--9----9--9--x--9--x--|-----7--x--7----7--7--x--7--x--|
G|-------9--x--9----9--9--x--9--x--|-----7--x--7----7--7--x--7--x--|
D|----9--9--x--9----9--9--x--9--x--|--7--7--x--7----7--7--x--7--x--|
A|----7----------------------------|--5----------------------------|
E|---------------------------------|-------------------------------|



      E             D                 E
e|---------------------------------|-------------------------------|
B|-------9--x--9----7--7--x--7--x--|-----9--x--9----9--9-9-x-9--x--|
G|-------9--x--9----7--7--x--7--x--|-----9--x--9----9--9-9-x-9--x--|
D|----9--9--x--9----7--7--x--7--x--|--9--9--x--9----9--9-9-x-9--x--|
A|----7----------------------------|--7----------------------------|
E|---------------------------------|-------------------------------|



      E                               D
e|---------------------------------|-------------------------------|
B|-------9--x--9----9--9--x--9--x--|-----7--x--7----7--7--x--7--x--|
G|-------9--x--9----9--9--x--9--x--|-----7--x--7----7--7--x--7--x--|
D|----9--9--x--9----9--9--x--9--x--|--7--7--x--7----7--7--x--7--x--|
A|----7----------------------------|--5----------------------------|
E|---------------------------------|-------------------------------|



      E             D                 E
e|---------------------------------|-------------------------------|
B|-------9--x--9----7--7--x--7--x--|-----9--x--9----9--9-9-x-9--x--|
G|-------9--x--9----7--7--x--7--x--|-----9--x--9----9--9-9-x-9--x--|
D|----9--9--x--9----7--7--x--7--x--|--9--9--x--9----9--9-9-x-9--x--|
A|----7----------------------------|--7----------------------------|
E|---------------------------------|-------------------------------|

  Verse 2

      E                          F#m11
e|----------0--0--------0-----|--------0--0--------0-----|
B|----------0--0--------0-----|--------0--0--------0-----|
G|----------1--1--------1-----|--2--2--2--2--2--2--2--2--|
D|----2--2--2--2--2--2--2--2--|--4--4--4--4--4--4--4--4--|
A|----2--2--2--2--2--2--2--2--|--4--4--4--4--4--4--4--4--|
E|----0--0--------0--0-----0--|--------------------------|



      G6          F#m11          E
e|----------0--0--------0-----|--------0--0--------0-----|
B|----------0--0--------0-----|--------0--0--------0-----|
G|----4--4--4--4--2--2--2--2--|--------1--1--------1-----|
D|----5--5--5--5--4--4--4--4--|--2--2--2--2--2--2--2--2--|
A|----5--5--5--5--4--4--4--4--|--2--2--2--2--2--2--2--2--|
E|----------------------------|--0--0--------0--0-----0--|



      E                          F#m11
e|----------0--0--------0-----|--------0--0--------0-----|
B|----------0--0--------0-----|--------0--0--------0-----|
G|----------1--1--------1-----|--2--2--2--2--2--2--2--2--|
D|----2--2--2--2--2--2--2--2--|--4--4--4--4--4--4--4--4--|
A|----2--2--2--2--2--2--2--2--|--4--4--4--4--4--4--4--4--|
E|----0--0--------0--0-----0--|--------------------------|



      G6          F#m11          E
e|----------0--0--------0-----|--------0--0--------0-x-x--|
B|----------0--0--------0-----|--------0--0--------0-x-x--|
G|----4--4--4--4--2--2--2--2--|--------1--1--------1-x-x--|
D|----5--5--5--5--4--4--4--4--|--2--2--2--2--2--2--2-x-x--|
A|----5--5--5--5--4--4--4--4--|--2--2--2--2--2--2--2-x-x--|
E|----------------------------|--0--0--------0--0---------|


  Chorus

      E                               D
e|---------------------------------|-------------------------------|
B|-------9--x--9----9--9--x--9--x--|-----7--x--7----7--7--x--7--x--|
G|-------9--x--9----9--9--x--9--x--|-----7--x--7----7--7--x--7--x--|
D|----9--9--x--9----9--9--x--9--x--|--7--7--x--7----7--7--x--7--x--|
A|----7----------------------------|--5----------------------------|
E|---------------------------------|-------------------------------|



      E             D                 E
e|---------------------------------|-------------------------------|
B|-------9--x--9----7--7--x--7--x--|-----9--x--9----9--9-9-x-9--x--|
G|-------9--x--9----7--7--x--7--x--|-----9--x--9----9--9-9-x-9--x--|
D|----9--9--x--9----7--7--x--7--x--|--9--9--x--9----9--9-9-x-9--x--|
A|----7----------------------------|--7----------------------------|
E|---------------------------------|-------------------------------|



      E                               D
e|---------------------------------|-------------------------------|
B|-------9--x--9----9--9--x--9--x--|-----7--x--7----7--7--x--7--x--|
G|-------9--x--9----9--9--x--9--x--|-----7--x--7----7--7--x--7--x--|
D|----9--9--x--9----9--9--x--9--x--|--7--7--x--7----7--7--x--7--x--|
A|----7----------------------------|--5----------------------------|
E|---------------------------------|-------------------------------|



      E             D                 E
e|---------------------------------|-------------------------------|
B|-------9--x--9----7--7--x--7--x--|-----9--x--9----9--9-9-x-9--x--|
G|-------9--x--9----7--7--x--7--x--|-----9--x--9----9--9-9-x-9--x--|
D|----9--9--x--9----7--7--x--7--x--|--9--9--x--9----9--9-9-x-9--x--|
A|----7----------------------------|--7----------------------------|
E|---------------------------------|-------------------------------|

  Guitar Solo
             ~~~~~~                           ~~~ 
      E                       D
e|-------------------------|--------------------------|
B|-------------------------|--------------------------|
G|--------7h9--------------|--7h9p7--9/12--(12)-------|
D|-------------------------|--------------------------|
A|-------------------------|--------------------------|
E|-------------------------|--------------------------|


                                    ~~~~~~
      E              D            E
e|-----------------------------|---------------------------|
B|-----------------------------|---------------------------|
G|----12b14--(14)--(13)--(14)--|-(13)----------------------|
D|-----------------------------|---------------------------|
A|-----------------------------|---------------------------|
E|-----------------------------|---------------------------|


                              ~~~~~~
      E                      D
e|------------------------|---------------------------|
B|------------------------|---------------------------|
G|----11b14--(12)----7h9--|-p7------------------------|
D|------------------------|---------------------------|
A|------------------------|---------------------------|
E|------------------------|---------------------------|


           ~~~      ~~~          ~~~~~~ 
      E            D            E
e|---------------------------|---------------------------|
B|---------------------------|---------------------------|
G|----7h9p7----6h9p6----4h5--|-p4---------------1h2-1h2/-|
D|---------------------------|---------------------------|
A|---------------------------|---------------------------|
E|---------------------------|---------------------------|


       ~~~                       ~~~
      E                         D
e|---------------------------|---------------------------|
B|---------------------------|---------------------------|
G|---/4-------------4h6p4h6/-|-/7---------------7h9p7h9--|
D|---------------------------|---------------------------|
A|---------------------------|---------------------------|
E|---------------------------|---------------------------|


                                    ~~~
      E           D                E
e|------------------------------|---------------------------|
B|------------------------------|---------------------------|
G|----11b13----9--7------6h7p6\-|-\4---------------1h2p1h2/-|
D|------------------------------|---------------------------|
A|------------------------------|---------------------------|
E|------------------------------|---------------------------|


       ~~~                       ~~~
      E                         D
e|---------------------------|---------------------------|
B|---------------------------|---------------------------|
G|---/4-------------4h6p4h6/-|-/7-----------11b13--(11)b-|
D|---------------------------|---------------------------|
A|---------------------------|---------------------------|
E|---------------------------|---------------------------|


                                  ~~~~~~
      E             D            E
e|----------------------------|---------------------------|
B|----------------------------|---------------------------|
G|---(14)----11b13----9--7h9--|--7-----------------14b15--|
D|----------------------------|---------------------------|
A|----------------------------|---------------------------|
E|----------------------------|---------------------------|


        ~~~           slow           ~~~
     E                         D 
e|--------------------------|----------------------------|
B|--------------------------|----------------------------|
G|---b16-------------15b18--|-(18)b19----------14b15-14--|
D|--------------------------|----------------------------|
A|--------------------------|----------------------------|
E|--------------------------|----------------------------|


              ~~~                     ~~~
      E             D                E
e|--------------------------------|---------------------------|
B|--------------------------------|---------------------------|
G|----12h14-12-------------7h9p7--|-(7)--------------1h2-1-2--|
D|--------------------------------|---------------------------|
A|--------------------------------|---------------------------|
E|--------------------------------|---------------------------|


       ~~~                       ~~~
      E                         D
e|---------------------------|---------------------------|
B|---------------------------|---------------------------|
G|----4-------------4h6p4h6/-|-/7---------------9p7h9p7--|
D|---------------------------|---------------------------|
A|---------------------------|---------------------------|
E|---------------------------|---------------------------|


                      ~~~            ~~~
      E              D              E
e|-------------------------------|---------------------------|
B|-------------------------------|---------------------------|
G|----9p7-9----7h9p7/6----6h9p6\-|-\4------------4p2h4p2h4p2-|
D|-------------------------------|---------------------------|
A|-------------------------------|---------------------------|
E|-------------------------------|---------------------------|


       ~~~                        ~~~
      E                          D
e|----------------------------|---------------------------|
B|----------------------------|---------------------------|
G|---(2)-------------1h2p1h2/-|-/4--------1h2p1-------1h2-|
D|----------------------------|---------------------------|
A|----------------------------|---------------------------|
E|----------------------------|---------------------------|



      E           D              E
e|----------------------------|---------------------------|
B|----------------------------|---------------------------|
G|----1----1h2-1----/2-/4-\2\-|-\1---------------11b13----|
D|----------------------------|---------------------------|
A|----------------------------|---------------------------|
E|----------------------------|---------------------------|


           ~~~                       ~~~
      E                         D
e|---------------------------|---------------------------|
B|---------------------------|---------------------------|
G|----7h9p7-(7)-------11b13--|--7h9p7-(7)-------11b13----|
D|---------------------------|---------------------------|
A|---------------------------|---------------------------|
E|---------------------------|---------------------------|


           ~~~              ~~~       ~~~~
      E             D                E
e|--------------------------------|---------------------------|
B|--------------------------------|---------------------------|
G|----7h9p7-(7)--------7h9p7-(7)--|--9------------------------|
D|--------------------------------|---------------------------|
A|--------------------------------|---------------------------|
E|--------------------------------|---------------------------|

                          Intro

                           G6
e|-----------------------|-------0-(0)-------0-----------0-(0)-|
B|----------------0------|----0--------0-(0)-------0-(0)-------|
G|------------1---2---3--|-4-----------------------------------|
D|-----------------------|-------------------------------------|
A|------------2---3---4--|-5--5-----------5-----5-----------5--|
E|-----------------------|-------------------------------------|



      F#add11                                Fmaj7add#11
e|----------0-(0)-------0-----------0-(0)-|--------0-(0)-------0-----------0-(0)-|
B|-------0--------0-(0)-------0-(0)-------|-----0--------0-(0)-------0-(0)-------|
G|----3-----------------------------------|--2-----------------------------------|
D|----------------------------------------|--------------------------------------|
A|---\4--4-----------4-----4-----------4--|-\3--3-----------3-----3-----------3--|
E|----------------------------------------|--------------------------------------|



      E                                  G6
e|----------0-(0)-------0--------------|-------0-(0)-------0-----------0-(0)-|
B|-------0--------0-(0)----------------|----0--------0-(0)-------0-(0)-------|
G|----1---------------------1---2---3--|-4-----------------------------------|
D|-------------------------------------|-------------------------------------|
A|---\2--2-----------2--2---2---3---4--|-5--5-----------5-----5-----------5--|
E|-------------------------------------|-------------------------------------|



      F#add11                                Fmaj7add#11
e|----------0-(0)-------0-----------0-(0)-|--------0-(0)-------0-----------0-(0)-|
B|-------0--------0-(0)-------0-(0)-------|-----0--------0-(0)-------0-(0)-------|
G|----3-----------------------------------|--2-----------------------------------|
D|----------------------------------------|--------------------------------------|
A|---\4--4-----------4-----4-----------4--|-\3--3-----------3-----3-----------3--|
E|----------------------------------------|--------------------------------------|



      E
e|----------0-(0)-------0-----------0-----|
B|-------0--------0-(0)-------0-(0)----0--|
G|----1-----------------------------------|
D|----------------------------------------|
A|---\2--2-----------2-----2--------------|
E|----------------------------------------|

  Chorus

      E                               D
e|---------------------------------|-----2--x--2----2--2--x--2--2--|
B|---------------------------------|-----3--x--3----3--3--x--3--3--|
G|-------1--x--1----1--1--x--1--x--|--2--2--x--2----2--2--x--2--2--|
D|----2--2--x--2----2--2--x--2--x--|--0----------------------------|
A|----2--2--x--2----2--2--x--2--x--|-------------------------------|
E|----0----------------------------|-------------------------------|



      E             D                 E
e|------------------2--2--x--2--x--|-------------------------------|
B|------------------3--3--x--3--x--|-------------------------------|
G|-------1--x--1----2--2--x--2--x--|-----1--x--1----1--1--1--x--1--|
D|----2--2--x--2-------------------|--2--2--x--2----2--2--2--x--2--|
A|----2--2--x--2-------------------|--2--2--x--2----2--2--2--x--2--|
E|----0----------------------------|--0----------------------------|



      E                               D
e|---------------------------------|-----2--x--2----2--2--x--2--2--|
B|---------------------------------|-----3--x--3----3--3--x--3--3--|
G|-------1--x--1----1--1--x--1--x--|--2--2--x--2----2--2--x--2--2--|
D|----2--2--x--2----2--2--x--2--x--|--0----------------------------|
A|----2--2--x--2----2--2--x--2--x--|-------------------------------|
E|----0----------------------------|-------------------------------|



      E             D                 E
e|------------------2--2--x--2--x--|-------------------------------|
B|------------------3--3--x--3--x--|-------------------------------|
G|-------1--x--1----2--2--x--2--x--|-----1--x--1----1--1--1\-------|
D|----2--2--x--2-------------------|--2--2--x--2----2--2--2\-------|
A|----2--2--x--2-------------------|--2--2--x--2----2--2--2\-------|
E|----0----------------------------|--0----------------------------|

  Chorus

      E                               D
e|---------------------------------|-----2--x--2----2--2--x--2--2--|
B|---------------------------------|-----3--x--3----3--3--x--3--3--|
G|-------1--x--1----1--1--x--1--x--|--2--2--x--2----2--2--x--2--2--|
D|----2--2--x--2----2--2--x--2--x--|--0----------------------------|
A|----2--2--x--2----2--2--x--2--x--|-------------------------------|
E|----0----------------------------|-------------------------------|



      E             D                 E
e|------------------2--2--x--2--x--|-------------------------------|
B|------------------3--3--x--3--x--|-------------------------------|
G|-------1--x--1----2--2--x--2--x--|-----1--x--1----1--1--1--x--1--|
D|----2--2--x--2-------------------|--2--2--x--2----2--2--2--x--2--|
A|----2--2--x--2-------------------|--2--2--x--2----2--2--2--x--2--|
E|----0----------------------------|--0----------------------------|



      E                               D
e|---------------------------------|-----2--x--2----2--2--x--2--2--|
B|---------------------------------|-----3--x--3----3--3--x--3--3--|
G|-------1--x--1----1--1--x--1--x--|--2--2--x--2----2--2--x--2--2--|
D|----2--2--x--2----2--2--x--2--x--|--0----------------------------|
A|----2--2--x--2----2--2--x--2--x--|-------------------------------|
E|----0----------------------------|-------------------------------|



      E             D                 E
e|------------------2--2--x--2--x--|-------------------------------|
B|------------------3--3--x--3--x--|-------------------------------|
G|-------1--x--1----2--2--x--2--x--|-----1--x--1----1--1--1\-------|
D|----2--2--x--2-------------------|--2--2--x--2----2--2--2\-------|
A|----2--2--x--2-------------------|--2--2--x--2----2--2--2\-------|
E|----0----------------------------|--0----------------------------|

  Chorus

      E                               D
e|---------------------------------|-----2--x--2----2--2--x--2--2--|
B|---------------------------------|-----3--x--3----3--3--x--3--3--|
G|-------1--x--1----1--1--x--1--x--|--2--2--x--2----2--2--x--2--2--|
D|----2--2--x--2----2--2--x--2--x--|--0----------------------------|
A|----2--2--x--2----2--2--x--2--x--|-------------------------------|
E|----0----------------------------|-------------------------------|



      E             D                 E
e|------------------2--2--x--2--x--|-------------------------------|
B|------------------3--3--x--3--x--|-------------------------------|
G|-------1--x--1----2--2--x--2--x--|-----1--x--1----1--1--1--x--1--|
D|----2--2--x--2-------------------|--2--2--x--2----2--2--2--x--2--|
A|----2--2--x--2-------------------|--2--2--x--2----2--2--2--x--2--|
E|----0----------------------------|--0----------------------------|



      E                               D
e|---------------------------------|-----2--x--2----2--2--x--2--2--|
B|---------------------------------|-----3--x--3----3--3--x--3--3--|
G|-------1--x--1----1--1--x--1--x--|--2--2--x--2----2--2--x--2--2--|
D|----2--2--x--2----2--2--x--2--x--|--0----------------------------|
A|----2--2--x--2----2--2--x--2--x--|-------------------------------|
E|----0----------------------------|-------------------------------|



      E             D                 E
e|------------------2--2--x--2--x--|-------------------------------|
B|------------------3--3--x--3--x--|-------------------------------|
G|-------1--x--1----2--2--x--2--x--|-----1--x--1----1--1--1\-------|
D|----2--2--x--2-------------------|--2--2--x--2----2--2--2\-------|
A|----2--2--x--2-------------------|--2--2--x--2----2--2--2\-------|
E|----0----------------------------|--0----------------------------|

  Chorus

      E                               D
e|-------0-----0----0----0----0-0--|-----2-----2----2----2----2-2--|
B|-------0-----0----0----0----0-0--|-----3-----3----3----3----3-3--|
G|-------1-----1----1----1----1-1--|--2--2-----2----2----2----2-2--|
D|----2--2-----2----2----2----2-2--|--0----------------------------|
A|----2--2-----2----2----2----2-2--|-------------------------------|
E|----0----------------------------|-------------------------------|



      E             D                 E
e|-------0-----0----2--2-2-x-2-----|-----0-----0-------------------|
B|-------0-----0----3--3-3-x-3-----|-----0-----0-------------------|
G|-------1-----1----2--2-2-x-2-----|-----1-----1----1--1-1-x-1-----|
D|----2--2-----2-------------------|--2--2-----2----2--2-2-x-2-----|
A|----2--2-----2-------------------|--2--2-----2----2--2-2-x-2-----|
E|----0----------------------------|--0----------------------------|



      E                               D
e|-------0-----0----0----0----0-0--|-----2-----2----2----2----2-2--|
B|-------0-----0----0----0----0-0--|-----3-----3----3----3----3-3--|
G|-------1-----1----1----1----1-1--|--2--2-----2----2----2----2-2--|
D|----2--2-----2----2----2----2-2--|--0----------------------------|
A|----2--2-----2----2----2----2-2--|-------------------------------|
E|----0----------------------------|-------------------------------|



      E             D                 E
e|-------0-----0----2--2-2-x-2-----|-----0-----0-------------------|
B|-------0-----0----3--3-3-x-3-----|-----0-----0-------------------|
G|-------1-----1----2--2-2-x-2-----|-----1-----1----1--1-1-x-1-----|
D|----2--2-----2-------------------|--2--2-----2----2--2-2-x-2-----|
A|----2--2-----2-------------------|--2--2-----2----2--2-2-x-2-----|
E|----0----------------------------|--0----------------------------|

  Chorus

      E
e|----0----------------------------|-------------------------------|
B|----0----------------------------|-------------------------------|
G|----1----------------------------|-------------------------------|
D|----2----------------------------|-------------------------------|
A|----2----------------------------|-------------------------------|
E|----0----------------------------|-------------------------------|




e|---------------------------------|-------------------------------|
B|---------------------------------|-------------------------------|
G|---------------------------------|-------------------------------|
D|---------------------------------|-------------------------------|
A|---------------------------------|-------------------------------|
E|---------------------------------|-------------------------------|




e|---------------------------------|-------------------------------|
B|---------------------------------|-------------------------------|
G|---------------------------------|-------------------------------|
D|---------------------------------|-------------------------------|
A|---------------------------------|-------------------------------|
E|---------------------------------|-------------------------------|



                                             E
e|---------------------------------|---------0------------0--------|
B|---------------------------------|---------0------------0--------|
G|---------------------------------|---------1------------1--------|
D|---------------------------------|---------2------------2--------|
A|---------------------------------|---------2------------2--------|
E|---------------------------------|---------0------------0--------|






Pick up

|              |

Intro

| G6           | F#add11      | Fmaj7add#11  | E             |

| G6           | F#add11      | Fmaj7add#11  | E             |


Chorus

E            D
I'm so glad, I'm so glad
E         D         E
I'm glad, I'm glad, I'm glad
E            D
I'm so glad, I'm so glad
E         D         E
I'm glad, I'm glad, I'm glad


Verse 1

E
I don't know what to do
F#m11
I don't know what to do
G6           F#m11   E     
I don't know what to do
E
I'm tired of weeping
F#m11
I'm tired of moaning
G6           F#m11      E 
I'm tired of crying for you


Chorus

E            D
I'm so glad, I'm so glad
E         D         E
I'm glad, I'm glad, I'm glad
E            D
I'm so glad, I'm so glad
E         D         E
I'm glad, I'm glad, I'm glad


Verse 2
E
I'm tired of weeping
F#m11
I'm tired of moaning
G6           F#m11   E 
I'm tired of groaning for you
E
I don't know what to do
F#m11
I don't know what to do
G6           F#m11   E 
I don't know what to do


Chorus

E            D
I'm so glad, I'm so glad
E         D         E
I'm glad, I'm glad, I'm glad
E            D
I'm so glad, I'm so glad
E         D         E
I'm glad, I'm glad, I'm glad


Guitar solo

| E            | D            | E     D      | E            |

| E            | D            | E     D      | E            |

| E            | D            | E     D      | E            |

| E            | D            | E     D      | E            |

| E            | D            | E     D      | E            |

| E            | D            | E     D      | E            |

| E            | D            | E     D      | E            |

| E            | D            | E     D      | E            |


Pick up

|              |

Intro

| G6           | F#add11      | Fmaj7add#11  | E             |

| G6           | F#add11      | Fmaj7add#11  | E             |


Chorus

E            D
I'm so glad, I'm so glad
E         D         E
I'm glad, I'm glad, I'm glad
E            D
I'm so glad, I'm so glad
E         D         E
I'm glad, I'm glad, I'm glad


Chorus

E            D
I'm so glad, I'm so glad
E         D         E
I'm glad, I'm glad, I'm glad
E            D
I'm so glad, I'm so glad
E         D         E
I'm glad, I'm glad, I'm glad


Chorus

E            D
I'm so glad, I'm so glad
E         D         E
I'm glad, I'm glad, I'm glad
E            D
I'm so glad, I'm so glad
E         D         E
I'm glad, I'm glad, I'm glad


Chorus

E            D
I'm so glad, I'm so glad
E         D         E
I'm glad, I'm glad, I'm glad
E            D
I'm so glad, I'm so glad
E         D         E
I'm glad, I'm glad, I'm glad


Chorus

E
I'm so glad, I'm so glad

I'm glad, I'm glad, I'm glad

I'm so glad, I'm so glad

I'm glad, I'm glad, I'm glad








/    slide up
\    slide down
h    hammer-on
p    pull-off
~~   vibrato


=======================================================================  03 Nov 2012
Suggest correction
Creating personal tab
Creating personal tab
You can edit any tab online and save it as your Personal.

You can edit, replace or remove any tab part or add personal notes – all changes will be seen only by you.

Personal tabs can be accessed anytime from any device, even offline.
Learn more »
Give kudos to tab author, rate the tab!
1 2 3 4 5
comments
print report bad tab
guest
You may want to rate the tab now too:
select rating
Wanna post a correction for this tab? Suggest correction