Oops, an error
Loading. Please wait.

Nsu intro tab

version 2
version 2

Intro

  • The opening guitar figure is executed via hybrid p... Show more

Whole song

Interactive

by Cream
16 views 3 this week
no commentswrite comment
1 2 3 4 5
3 more votes to show rating
add to favorites
×
Save as Personal and add changes to this tab that will be seen only by you. Learn more ›
×
You can save this tab as Personal to edit and correct it or add notes. All changes will be seen only by you. Learn more »
launch autoscroll
font size
0
reset
how to read this tab
guitar tuner
backing track
0:00
0:00
edit
Autoscroll
slow
fast
+/-
esc
set tempo
stop
About this tab version
The opening guitar figure is executed via hybrid picking (pick and fingers). While fretting a C root note (4th string/10th fret) and G a fifth above (2nd string/8th fret), the open G and open high E are sounded within an alternating picking pattern. Additionally, there is the occasional pull-off on the B string from A (10th fret) to G (8th fret). Was this info helpful? Yes No
------------------------------------------------------------------------------------
                                   N.S.U. - Cream
                                    (Jack Bruce)
                                 Fresh Cream [1966]
------------------------------------------------------------------------------------


Tabbed by: varannion
Email:     dm_hughes1@hotmail.com


Tuning: standard

    Intro
                              Let ring throughout
                              C
                              >         >    >        >         >    >
e|-------------------------|------------0----------|------------0----------|
B|-------------------------|--8--------------8-----|--8--------------8-----|
G|-------------------------|-------0---------------|-------0---------------|
D|-------------------------|----10---10---10---10--|----10---10---10---10--|
A|-------------------------|-----------------------|-----------------------|
E|-------------------------|-----------------------|-----------------------|

                                                      Verse 1

      >         >    >        >         >    >        >         >    >
e|--------------0----------|------------0----------|------------0----------|
B|----8--------------8-----|--8--------------8-----|--8--------------8-----|
G|---------0---------------|-------0---------------|-------0---------------|
D|------10---10---10---10--|----10---10---10---10--|----10---10---10---10--|
A|-------------------------|-----------------------|-----------------------|
E|-------------------------|-----------------------|-----------------------|




      >         >    >        >         >    >        >         >    >
e|--------------0----------|------------0----------|------------0------------|
B|----8--------------8-----|--8--------------8-----|--8--------------8-(8)/--|
G|---------0---------------|-------0---------------|-------0---------0-------|
D|------10---10---10---10--|----10---10---10---10--|----10---10---10-10------|
A|-------------------------|-----------------------|-------------------------|
E|-------------------------|-----------------------|-------------------------|


      F/C                             Eb/Bb
      >       >    >    >             >       >       >    >
e|---------------------------------|---------------------------------|
B|------------10---10---10---------|-(8)-8----8----8--8----8---------|
G|----10-(10)-10---10---10-(8)-(8)-|--8--8----8----8--8----8---------|
D|----10-(10)-10---10---10--8---8--|--8--8----8----8--8----8---------|
A|----8--(8)--8----8----8---8---8--|--6--6----6----6--6----6---------|
E|----8--(8)--8----8----8---6---6--|--6--6----6----6--6----6---------|
 |
e|---------------------------------|---------------------------------|
B|-------(0)-(10)-------(10)\-\(8)-|---------------------------------|
G|------------10------10-10\---\10-|-----8----8---------8--8\----\5--|
D|----10------10---10-10-10\---\10-|--8--8----8-------8-8--8\----\5--|
A|---------------------------------|---------------------------------|
E|---------------------------------|---------------------------------|


      C/G
      >      >      >      >          >      >      >      >
e|---------------------------------|---------------------------------|
B|----5------5------5------5-------|--5------5------5------5---------|
G|----5------5------5------5-------|--5------5------5------5/-/(10)--|
D|----5------5------5------5-------|--5------5------5------5/-/(10)--|
A|----3------3------3------3-------|--3------3------3------3/--/8----|
E|----3------3------3------3-------|---------3------3------3/--/8----|
 |
e|---------------------------------|---------------------------------|
B|----5----------------------------|---------------------------------|
G|----5----------------------------|---------------------------------|
D|----5----------------------------|---------------------------------|
A|---------------------------------|---------------------------------|
E|---------------------------------|---------------------------------|


      F/C                             Eb/Bb
      >      >    >   >                >       >      >       >
e|----------(10)-(10)(10)-----------|--------------------------------|
B|----10-----10---10--10--10--10\8--|-(8)---8--8------8----8--8------|
G|----10-----10---10--10--10--10\8--|--8----8--8------8----8--8------|
D|----10-----10---10--10--10--10\8--|--8----8--8------8----8--8------|
A|----8------8----8---8---8---8\-6--|--6----6--6------6----6--6------|
E|----8------8----8---8---8---8\-6--|--6----6--6------6----6--6------|
 |
e|----------------------------------|--------------------------------|
B|----------------------------10\---|----------8--------------8------|
G|-------10--10-------10------10\8--|-----8----8-------8------8------|
D|----10-----10----10---------10\8--|--8--8----8-----8-8------8------|
A|----------------------------------|--------------------------------|
E|----------------------------------|--------------------------------|


      A

e|----------------------------------|--------------------------------|
B|----5-----------------------------|--------------------------------|
G|----6-----------------------------|--------------------------------|
D|----7-----------------------------|--------------------------------|
A|----7-----------------------------|--------------------------------|
E|----5-----------------------------|--------------------------------|
 |
e|----0-----------------------------|--------------------------------|
B|----5-----------------------------|--------------------------------|
G|----6-----------------------------|--------------------------------|
D|----7-----------------------------|--------------------------------|
A|----------------------------------|--------------------------------|
E|----------------------------------|--------------------------------|


                                       G
                                       >    >    >    >    >    >
e|----------------------------------|--3----3----3----3----3----3----|
B|----------------------------------|--3----3----3----3----3----3----|
G|----------------------------------|--4----4----4----4----4----4----|
D|----------------------------------|--5----5----5----5----5----5----|
A|----------------------------------|--5----5----5----5----5----5----|
E|----------------------------------|--3----3----3----3----3----3----|

      Verse 2
      C
      >         >    >        >         >    >        >         >    >
e|--------------0----------|------------0----------|------------0----------|
B|----8--------------8-----|--8--------------8-----|--8--------------8-----|
G|---------0---------------|-------0---------------|-------0---------------|
D|------10---10---10---10--|----10---10---10---10--|----10---10---10---10--|
A|-------------------------|-----------------------|-----------------------|
E|-------------------------|-----------------------|-----------------------|




      >         >    >        
e|--------------0----------|
B|----8--------------8-----|
G|---------0---------------|
D|------10---10---10---10--|
A|-------------------------|
E|-------------------------|






************************************

| h   Hammer-on
| \   Slide down
| /   Slide up
| p   Pull-off
| r   Release
| b   Bend
| ~   Vibrato
| (n) Ghost note
| x   Dead note
| bss Bend slightly sharp
| pb  Pre-bend
| co  Cut-off
| pr  Partial release


************************************

=======================================================================  28 May 2017


            
            
Suggest correction
Creating personal tab
Creating personal tab
You can edit any tab online and save it as your Personal.

You can edit, replace or remove any tab part or add personal notes – all changes will be seen only by you.

Personal tabs can be accessed anytime from any device, even offline.
Learn more »
Give kudos to tab author, rate the tab!
1 2 3 4 5
comments
print report bad tab
guest
You may want to rate the tab now too:
select rating
Wanna post a correction for this tab? Suggest correction