Oops, an error
Loading. Please wait.

Politician Bass

version 1
version 1

Whole song

Interactive

10,998 views 24 this week
2 commentsread comments
1 2 3 4 5
x 6
add to favorites
launch autoscroll
font size
0
reset
guitar tuner
backing track
0:00
0:00
×
Best way to learn
"Politician"
Autoscroll
slow
fast
+/-
esc
set tempo
stop
Cream
Politician
Jack Bruce

Main Riff I:

G--------------------|----|
D-----2h3------------|----|
A-3h4-----3-4-3-4----|3h4-|
E-----------------3h4|----|

Main Riff II

G-----2h3------------|----|
D-3h4-----3-4-3-4----|3h4-|
A-----------------3h4|----|
E--------------------|----|


Fills:

g|--------------------|
d|-6-6-4--------------| 
a|-------6h5h4--------| 
e|-------------6------|

g|--------------------|
d|-4-4-2--------------| 
a|-------4h3h2--------| 
e|-------------4h3h2--|

You can improvise on the fills (its recommended because thats what Jack does aswell)


The two last notes of the main riffs are played a little weaker then the other parts of the riff,
so dont make them as clear as the other parts are.

Listen to the song for riff order.

Gal
Suggest correction
comments
print report bad tab
2 comments total.
0 reply
[the]whorocks 90 Mar 06, 2010 01:25 PM

main riff is absolutely correct except it's in D, not C#. move everything up a fret and you've got yourself a great tab.

guest
You may want to rate the tab now too:
select rating
Wanna post a correction for this tab? Suggest correction