Oops, an error
Loading. Please wait.

Sleepy Time Time tab

version 4
version 4

Whole song

by Cream
284 views 1 this week
no commentswrite comment
1 2 3 4 5
3 more votes to show rating
add to favorites
×
Save as Personal and add changes to this tab that will be seen only by you. Learn more ›
×
You can save this tab as Personal to edit and correct it or add notes. All changes will be seen only by you. Learn more »
launch autoscroll
font size
0
reset
how to read this tab
guitar tuner
edit
Autoscroll
slow
fast
+/-
esc
set tempo
stop
Author
Difficulty
-----------------------------------------------------------------
                    Sleepy Time Time - Cream
-----------------------------------------------------------------

Tabbed By : Aeonoptic
e-mail: aeonoptic@gmail.com

Tuning: EADGBe

C7
I'm a sleepy time baby

E|--------------------|
B|10b12-10-8----------|
G|-----------10-8h9~~~|
D|--------------------|
A|--------------------|
E|--------------------|

A sleepy time boy

E|------------------|
B|10pb12-8----------|
G|---------10-8h9~~~|
D|------------------|
A|------------------|
E|------------------|

Work only maybe    
                                             C9
                  Life is a joy!             We'll have a sleepy time time
E|---------------|--------------------------|-----------------------------|10b11~-10pb11-10-8~---|
B|10pb12-8-------|--------------------------|-----------------------------|--------------------10|
G|---------10-8h9|---------------8h10--8b---|------------8h10~~~-8b-------|----------------------|
D|---------------|------------------------10|-----------------------------|----------------------|
A|---------------|--------------------------|-----------------------------|----------------------|
E|---------------|--------------------------|-----------------------------|----------------------|

  We'll have a sleepy   time  time
E|--------------------------------|------15---------15-----------------------|
B|-------------11h13~~--11--------|15b17------15b17-----13h15-13~~-----------|
G|----------------------------10~~|-----------------------------------10-8---|
D|--------------------------------|----------------------------------------10|
A|--------------------------------|------------------------------------------|
E|--------------------------------|------------------------------------------|

  F9                                                              C9
  We'll have a sleepy time time                                   We'll have a sleepy time time
E|-----------------------------|---------------------------------|-----------------------------|
B|-----------------------------|15b17-15pb17--15pbr17--13h15-13~~|-----------------------------|
G|-------------8h10---8~~~~~---|---------------------------------|------8h10-8~~---------------|
D|-----------------------------|---------------------------------|-----------------------------|
A|-----------------------------|---------------------------------|-----------------------------|
E|-----------------------------|---------------------------------|-----------------------------|

                                     G9
E|------15-----------15-------------|----------------------------|
B|15b17----15--15b17----15pbr17-13~~|---15pbr17-13-15-13-15b17~~~|
G|----------------------------------|14--------------------------|
D|----------------------------------|----------------------------|
A|----------------------------------|----------------------------|
E|----------------------------------|----------------------------|

  F9                            C9
  Sleepy time time!                   Sleepy time time, all the time
E|-----------------------------|------------------------------------|----------------------------8----------
B|-----------------------------|8h11~~------------------------------|-------8---------------8h10------------
G|-----------------8-----------|------------------------------------|8h10~~----8--------------------10p8b---
D|-------------------10--------|------------------------------------|-------------10--8~~-------------------
A|----------------------10-----|------------------------------------|---------------------------------------
E|-------------------------11-8|------------------------------------|---------------------------------------

E|-------------|
B|11p8---------|
G|-----10-8h9~~|
D|-------------|
A|-------------|
E|-------------|

(same format as previous verse)
C7
I sleep in the day time
I sleep at night
Life is all playtime
 
                                               C9
  Working ain't right!                   We'll have a sleepy time time
E|---------------------------------------|--------------------------|------------------------------------------|
B|--------------------11h13--11b---------|--------------------------|13b16-13b15-13b15-13b15-13b15-13-11-13-11~|
G|--------------------------------12\10--|8h10~-------------8~~-----|------------------------------------------|
D|---------------------------------------|-----------------------10-|------------------------------------------|
A|---------------------------------------|--------------------------|------------------------------------------|
E|---------------------------------------|--------------------------|------------------------------------------|

                                                                           F9
  We'll have a sleepy time time                                            We'll have a sleepy time time
E|-----------------------------|--------------------15--------------------|
B|-----------------------------|15b17-15pb17-15b17-----15pbr17--13h15-13~~|
G|-----------------------------|------------------------------------------|
D|-----------------------------|------------------------------------------|
A|-----------------------------|------------------------------------------|
E|-----------------------------|------------------------------------------|
        
                                   C9
                                   We'll have a sleepy time time
E|-------------11-13-15-13-11-13-11-13-11~~~|------------------|18b20-18-18b20-18b20-18-18b20-18b20-18-13-11|
B|11h13~~~--13------------------------------|------------------|--------------------------------------------|
G|------------------------------------------|------------------|--------------------------------------------|
D|------------------------------------------|------------------|--------------------------------------------|
A|------------------------------------------|------------------|--------------------------------------------|
E|------------------------------------------|------------------|--------------------------------------------|

  G9                      F9                C9
         Sleepy time time                   sleepy time time all the time
E|-----------------------|-----------------|-----------------------------|8--------------8-----------------|
B|13---------------------|-----------------|-----------------------------|--11p8-11b13~----11-8----8-------|
G|---12~~----------------|12\10-8----8h10~~|-----------------------------|----------------------10---8h10p8|
D|-----------------------|--------10-------|-----------------------------|---------------------------------|
A|-----------------------|-----------------|-----------------------------|---------------------------------|
E|-----------------------|-----------------|-----------------------------|---------------------------------|

Solo  
  C9
E|-----------------------------|13b15-13pb15-13pb15--13pbr15-11-----------|------------18---------------------|
B|-----------------------------|--------------------------------13-11-13~~|16-18-18b20----18b20~~-18-16h18-16~|
G|10b12-10--8h10-8------------8|------------------------------------------|-----------------------------------|
D|-----------------10----8h10--|------------------------------------------|-----------------------------------|
A|--------------------10-------|------------------------------------------|-----------------------------------|
E|-----------------------------|------------------------------------------|-----------------------------------|

                                                                  F9
E|15h18-18--18b20-18b20-18b20-18b20-18b20-18b20-18b20-18b20-18b20|------18--------------------15-----------|
B|---------------------------------------------------------------|18b20----18-16h18~~---16-18----16-18-16~~|
G|---------------------------------------------------------------|-----------------------------------------|
D|---------------------------------------------------------------|-----------------------------------------|
A|---------------------------------------------------------------|-----------------------------------------|
E|---------------------------------------------------------------|-----------------------------------------|

                                                                 C9
E|------17p15----17p15----17p15----17p15-----15-------15--------|---------------------------------------|
B|------------16-------16-------16-------16-----15b17----15b-13~|11-13-11-13-11--13b16-13b16-13b16-13b16|
G|17\-----------------------------------------------------------|---------------------------------------|
D|--------------------------------------------------------------|---------------------------------------|
A|--------------------------------------------------------------|---------------------------------------|
E|--------------------------------------------------------------|---------------------------------------|
                
                                         G9
E|--------------------------------------|---------------------------------------------------|
B|11h13-11h13p11~~---/12\---------------|8-11p8--------8h11-8h11~~-8-11--8h11-8h11~~--8h11p8|
G|-------------------------8-10-8h10-8~~|-------10b12---------------------------------------|
D|--------------------------------------|---------------------------------------------------|
A|--------------------------------------|---------------------------------------------------|
E|--------------------------------------|---------------------------------------------------|

  F9                                                   C9
E|----------------------------------------------------|-------------------------------------------------------|
B|11h13-13-13b16-13-11--------------------------------|15b18-13----16b18-16b17~~--13-15----15b17-15-13-15-13~~|
G|---------------------8/10-12-8b-------------8-10-8~~|---------15----------------------14--------------------|
D|---------------------------------10----8h10---------|-------------------------------------------------------|
A|------------------------------------10--------------|-------------------------------------------------------|
E|----------------------------------------------------|-------------------------------------------------------|


E|----------------------------------|
B|----8----8~~-----8----------------|
G|/10---10------10---8b----8h10-8~~~|
D|----------------------10----------|
A|----------------------------------|
E|----------------------------------|

(verse)
C7
I have my sundays
That ain't no lie
  But all monday morning                 Hear my favourite cry
E|--------------------------------------|---------------------------11--13b15------|
B|----------------------10pbr12p8--13~~~|---------------------11h13-----------13~~~|
G|--------------------------------------|------------------------------------------|
D|--------------------------------------|------------------------------------------|
A|--------------------------------------|------------------------------------------|
E|--------------------------------------|------------------------------------------|

  C9
  We'll have a sleepy time time
E|-----------------------------|13b15-13pb15-13pbr15-13-11-13-11--|
B|-----------------------------|----------------------------------|
G|-----------------------------|----------------------------------|
D|-----------------------------|----------------------------------|
A|-----------------------------|----------------------------------|
E|-----------------------------|----------------------------------|

  we'll have a sleepy time time 
E|-------------------------------------------------------------|------------------------------------------|
B|--------------13h15-13h15-13h15-13h15-13h15-13h15-13h15-13h15|-13h15-13h15-13h15-13h15-13h15-13h15-13h15|
G|-------------------------------------------------------------|------------------------------------------|
D|-------------------------------------------------------------|------------------------------------------|
A|-------------------------------------------------------------|------------------------------------------|
E|-------------------------------------------------------------|------------------------------------------|

                        F9
                        We'll have a sleepy time time
E|-----8---------------|-----------------------------|---------------------------------------------|
B|8h11----8------------|-----------------------------|15b17-15pb17-15pb17-15brb17~-15----15----13~~|
G|----------8----8h10~~|-----------------------------|--------------------------------14----14-----|
D|------------10-------|-----------------------------|---------------------------------------------|
A|---------------------|-----------------------------|---------------------------------------------|
E|---------------------|-----------------------------|---------------------------------------------|

  C9
  We'll have a sleepy time time
E|-----------------------------|--------------------------------------------------|
B|-----------------------------|--------------------------------------------------|
G|-----------------------------|--3-5-5b8--3h5-3h5-3~~--5-3----------------------3|
D|-----------------------------|5---------------------------5-3-3---3-----3/5~~---|
A|-----------------------------|----------------------------------6---6-3---------|
E|-----------------------------|--------------------------------------------------|

  G9                                  F9                        C9
  Sleepy time time                    sleepy time, all the time
E|----------------|------------------|-------------------------|------------------------------|
B|----------------|8-11-8--11-8-11~~~|-------------------------|--------8-11-11b13-11b13-11b13|
G|----------------|------------------|-------------------------|8h10b12-----------------------|
D|----------------|------------------|-------------------------|------------------------------|
A|----------------|------------------|-------------------------|------------------------------|
E|----------------|------------------|-------------------------|------------------------------|


E|---------------------------------------12~~|
B|11pbr13-8--------------------------10--11~~|
G|----------8-10-8h10p8--8---------------12~~|
D|-------------------------10-10~~-----------|
A|-------------------------------------------|
E|-------------------------------------------|


| /  slide up
| \  slide down
| h  hammer-on
| p  pull-off
| ~  vibrato
| +  harmonic
| x  Mute note

            
            
Suggest correction
Creating personal tab
Creating personal tab
You can edit any tab online and save it as your Personal.

You can edit, replace or remove any tab part or add personal notes – all changes will be seen only by you.

Personal tabs can be accessed anytime from any device, even offline.
Learn more »
Give kudos to tab author, rate the tab!
1 2 3 4 5
comments
print report bad tab
guest
You may want to rate the tab now too:
select rating
Wanna post a correction for this tab? Suggest correction